0
SECTION
2
HEADER
9
$INSUNITS
70
4
9
$ACADVER
1
AC1014
9
$HANDSEED
5
FFFF
0
ENDSEC
0
SECTION
2
TABLES
0
TABLE
2
VPORT
5
8
100
AcDbSymbolTable
0
ENDTAB
0
TABLE
2
LTYPE
5
5
100
AcDbSymbolTable
0
LTYPE
5
14
100
AcDbSymbolTableRecord
100
AcDbLinetypeTableRecord
2
BYBLOCK
70
0
0
LTYPE
5
15
100
AcDbSymbolTableRecord
100
AcDbLinetypeTableRecord
2
BYLAYER
70
0
0
ENDTAB
0
TABLE
2
LAYER
5
2
100
AcDbSymbolTable
70
2
0
LAYER
5
50
100
AcDbSymbolTableRecord
100
AcDbLayerTableRecord
2
0
70
0
6
CONTINUOUS
0
ENDTAB
0
TABLE
2
STYLE
5
3
100
AcDbSymbolTable
70
1
0
STYLE
5
11
100
AcDbSymbolTableRecord
100
AcDbTextStyleTableRecord
2
STANDARD
70
0
0
ENDTAB
0
TABLE
2
VIEW
5
6
100
AcDbSymbolTable
70
0
0
ENDTAB
0
TABLE
2
UCS
5
7
100
AcDbSymbolTable
70
0
0
ENDTAB
0
TABLE
2
APPID
5
9
100
AcDbSymbolTable
70
2
0
APPID
5
12
100
AcDbSymbolTableRecord
100
AcDbRegAppTableRecord
2
ACAD
70
0
0
ENDTAB
0
TABLE
2
DIMSTYLE
5
A
100
AcDbSymbolTable
70
1
0
ENDTAB
0
TABLE
2
BLOCK_RECORD
5
1
100
AcDbSymbolTable
70
1
0
BLOCK_RECORD
5
1F
100
AcDbSymbolTableRecord
100
AcDbBlockTableRecord
2
*MODEL_SPACE
0
BLOCK_RECORD
5
1B
100
AcDbSymbolTableRecord
100
AcDbBlockTableRecord
2
*PAPER_SPACE
0
ENDTAB
0
ENDSEC
0
SECTION
2
BLOCKS
0
BLOCK
5
20
100
AcDbEntity
100
AcDbBlockBegin
2
*MODEL_SPACE
0
ENDBLK
5
21
100
AcDbEntity
100
AcDbBlockEnd
0
BLOCK
5
1C
100
AcDbEntity
100
AcDbBlockBegin
2
*PAPER_SPACE
0
ENDBLK
5
1D
100
AcDbEntity
100
AcDbBlockEnd
0
ENDSEC
0
SECTION
2
ENTITIES
0
SPLINE
5
100
100
AcDbEntity
8
0
100
AcDbSpline
70
4
71
3
72
8
73
4
74
0
42
0.000000001
43
0.0000000001
44
0.0000000001
40
0
40
0
40
0
40
0
40
1
40
1
40
1
40
1
41
1
41
1
41
1
41
1
10
151.382540951897
20
203.89785086756348
30
0
10
154.28488903829594
20
200.59227444012819
30
0
10
155.66307541301512
20
198.92256001840448
30
0
10
157.22873908789552
20
197.03865827539661
30
0
0
SPLINE
5
101
100
AcDbEntity
8
0
100
AcDbSpline
70
4
71
3
72
8
73
4
74
0
42
0.000000001
43
0.0000000001
44
0.0000000001
40
-1
40
-1
40
-1
40
-1
40
0
40
0
40
0
40
0
41
1
41
1
41
1
41
1
10
122.83582551241587
20
221.23573975291134
30
0
10
120.38560370129275
20
220.08729337000361
30
0
10
119.24197526523315
20
217.03301090712159
30
0
10
121.20300642050282
20
214.59242498969488
30
0
0
LWPOLYLINE
5
102
100
AcDbEntity
8
0
100
AcDbPolyline
90
18
70
1
43
0.0
10
502.5
20
190
10
505
20
190
10
505
20
110
10
502.5
20
110
10
502.5
20
0
10
390
20
-6.8886382452038718e-15
42
0.99999999999999989
10
165
20
6.8886382452038718e-15
10
52.5
20
0
10
52.5
20
110
10
50
20
110
10
50
20
190
10
52.5
20
190
10
52.5
20
300
10
237.5
20
300
10
237.5
20
302.5
10
317.5
20
302.5
10
317.5
20
300
10
502.5
20
300
0
LINE
5
103
100
AcDbEntity
8
0
100
AcDbLine
10
199.93235745307064
20
219.44422315920551
30
0
11
199.93239960260527
21
219.44422527033041
31
0
0
SPLINE
5
104
100
AcDbEntity
8
0
100
AcDbSpline
70
4
71
3
72
8
73
4
74
0
42
0.000000001
43
0.0000000001
44
0.0000000001
40
0
40
0
40
0
40
0
40
1
40
1
40
1
40
1
41
1
41
1
41
1
41
1
10
128.85073631348257
20
196.85528045632563
30
0
10
127.25231905257317
20
194.17210668882572
30
0
10
130.20280434476192
20
191.06199521027347
30
0
10
133.30366029384271
20
192.18208332708372
30
0
0
SPLINE
5
105
100
AcDbEntity
8
0
100
AcDbSpline
70
4
71
3
72
8
73
4
74
0
42
0.000000001
43
0.0000000001
44
0.0000000001
40
0
40
0
40
0
40
0
40
1
40
1
40
1
40
1
41
1
41
1
41
1
41
1
10
106.54275489004881
20
190.87650425661985
30
0
10
110.08508691610956
20
192.38426804393919
30
0
10
111.80830590546265
20
188.42281690478146
30
0
10
107.44007635916994
20
185.94423682756099
30
0
0
SPLINE
5
106
100
AcDbEntity
8
0
100
AcDbSpline
70
4
71
3
72
8
73
4
74
0
42
0.000000001
43
0.0000000001
44
0.0000000001
40
0
40
0
40
0
40
0
40
1
40
1
40
1
40
1
41
1
41
1
41
1
41
1
10
121.20300642050282
20
210.07390931189326
30
0
10
119.24197526523315
20
207.63332339446649
30
0
10
120.38560370129275
20
204.57904093158447
30
0
10
122.83582551241587
20
203.43059454867671
30
0
0
SPLINE
5
107
100
AcDbEntity
8
0
100
AcDbSpline
70
4
71
3
72
8
73
4
74
0
42
0.000000001
43
0.0000000001
44
0.0000000001
40
-1
40
-1
40
-1
40
-1
40
0
40
0
40
0
40
0
41
1
41
1
41
1
41
1
10
124.17753918424076
20
223.35812986490231
30
0
10
117.28905854676015
20
229.53097634466675
30
0
10
121.90976541297239
20
230.70638632484741
30
0
10
119.11307405569943
20
237.54871610304559
30
0
0
SPLINE
5
108
100
AcDbEntity
8
0
100
AcDbSpline
70
4
71
3
72
8
73
4
74
0
42
0.000000001
43
0.0000000001
44
0.0000000001
40
-1
40
-1
40
-1
40
-1
40
0
40
0
40
0
40
0
41
1
41
1
41
1
41
1
10
128.85073631348257
20
227.81105384526242
30
0
10
126.16756254598272
20
229.40947110617188
30
0
10
123.05745106743032
20
226.45902807667485
30
0
10
124.17753918424076
20
223.35812986490231
30
0
0
SPLINE
5
109
100
AcDbEntity
8
0
100
AcDbSpline
70
4
71
3
72
8
73
4
74
0
42
0.000000001
43
0.0000000001
44
0.0000000001
40
-1
40
-1
40
-1
40
-1
40
0
40
0
40
0
40
0
41
1
41
1
41
1
41
1
10
107.15471866514633
20
212.33314601944818
30
0
10
100.17030171761959
20
209.86208870134149
30
0
10
95.597436218355654
20
205.40033181842645
30
0
10
88.724804090244049
20
205.22211004773681
30
0
0
SPLINE
5
110
100
AcDbEntity
8
0
100
AcDbSpline
70
4
71
3
72
8
73
4
74
0
42
0.000000001
43
0.0000000001
44
0.0000000001
40
0
40
0
40
0
40
0
40
1
40
1
40
1
40
1
41
1
41
1
41
1
41
1
10
117.93965042202615
20
249.22167153688355
30
0
10
115.62107689539431
20
254.55116600476435
30
0
10
123.76873216790649
20
259.06494826110105
30
0
10
129.8435292030419
20
256.15604945749629
30
0
0
SPLINE
5
111
100
AcDbEntity
8
0
100
AcDbSpline
70
4
71
3
72
8
73
4
74
0
42
0.000000001
43
0.0000000001
44
0.0000000001
40
-1
40
-1
40
-1
40
-1
40
0
40
0
40
0
40
0
41
1
41
1
41
1
41
1
10
165.5241447304175
20
207.7761290295532
30
0
10
165.35610826841548
20
207.10119384389645
30
0
10
164.67267828173703
20
206.6902736929797
30
0
10
163.99774309608034
20
206.85835241767339
30
0
0
SPLINE
5
112
100
AcDbEntity
8
0
100
AcDbSpline
70
4
71
3
72
8
73
4
74
0
42
0.000000001
43
0.0000000001
44
0.0000000001
40
0
40
0
40
0
40
0
40
0.99999795275309478
40
0.99999795275309478
40
0.99999795275309478
40
0.99999795275309478
41
1
41
1
41
1
41
1
10
181.50248508806391
20
212.33318828213993
30
0
10
188.48684547415971
20
214.80424054138211
30
0
10
193.05974881110217
20
219.26598421453403
30
0
10
199.93235745307064
20
219.44422315920551
30
0
0
SPLINE
5
113
100
AcDbEntity
8
0
100
AcDbSpline
70
4
71
3
72
8
73
4
74
0
42
0.000000001
43
0.0000000001
44
0.0000000001
40
-1
40
-1
40
-1
40
-1
40
0
40
0
40
0
40
0
41
1
41
1
41
1
41
1
10
153.23115334737679
20
233.8259223836377
30
0
10
152.08270696446888
20
236.27614419476075
30
0
10
149.02842450158693
20
237.41977263082023
30
0
10
146.58783858416015
20
235.45874147555054
30
0
0
SPLINE
5
114
100
AcDbEntity
8
0
100
AcDbSpline
70
4
71
3
72
8
73
4
74
0
42
0.000000001
43
0.0000000001
44
0.0000000001
40
-1
40
-1
40
-1
40
-1
40
0
40
0
40
0
40
0
41
1
41
1
41
1
41
1
10
133.49532160047721
20
195.59910647240119
30
0
10
133.09779872281359
20
195.02834882166255
30
0
10
132.31285375079102
20
194.8879098973083
30
0
10
131.74209610005249
20
195.28543277497192
30
0
0
SPLINE
5
115
100
AcDbEntity
8
0
100
AcDbSpline
70
4
71
3
72
8
73
4
74
0
42
0.000000001
43
0.0000000001
44
0.0000000001
40
-1
40
-1
40
-1
40
-1
40
0
40
0
40
0
40
0
41
1
41
1
41
1
41
1
10
151.382540951897
20
221.4269361699377
30
0
10
153.01126056271968
20
225.23700234760378
30
0
10
154.1884455759498
20
227.92093684355342
30
0
10
155.16183989004148
20
229.72568056510002
30
0
0
LINE
5
116
100
AcDbEntity
8
0
100
AcDbLine
10
137.21752473684779
20
267.93694385860533
30
0
11
137.21752262572301
21
267.93698600813997
31
0
0
SPLINE
5
117
100
AcDbEntity
8
0
100
AcDbSpline
70
4
71
3
72
8
73
4
74
0
42
0.000000001
43
0.0000000001
44
0.0000000001
40
0
40
0
40
0
40
0
40
1
40
1
40
1
40
1
41
1
41
1
41
1
41
1
10
107.44007635916994
20
185.94423682756099
30
0
10
102.11058189128906
20
183.62566330092898
30
0
10
97.596799634952376
20
191.77331857344117
30
0
10
100.50569843855712
20
197.84811560857662
30
0
0
SPLINE
5
118
100
AcDbEntity
8
0
100
AcDbSpline
70
4
71
3
72
8
73
4
74
0
42
0.000000001
43
0.0000000001
44
0.0000000001
40
0
40
0
40
0
40
0
40
1
40
1
40
1
40
1
41
1
41
1
41
1
41
1
10
144.32855961391346
20
280.22583570775998
30
0
10
148.17201331798339
20
278.74799390612912
30
0
10
151.66481346942987
20
272.60561882704468
30
0
10
151.439595585625
20
267.93694380580934
30
0
0
SPLINE
5
119
100
AcDbEntity
8
0
100
AcDbSpline
70
4
71
3
72
8
73
4
74
0
42
0.000000001
43
0.0000000001
44
0.0000000001
40
0
40
0
40
0
40
0
40
1
40
1
40
1
40
1
41
1
41
1
41
1
41
1
10
170.7175110684924
20
175.44466276470459
30
0
10
173.03608459512441
20
170.1151682968237
30
0
10
164.88842932261235
20
165.60138604048706
30
0
10
158.81363228747682
20
168.51028484409176
30
0
0
SPLINE
5
120
100
AcDbEntity
8
0
100
AcDbSpline
70
4
71
3
72
8
73
4
74
0
42
0.000000001
43
0.0000000001
44
0.0000000001
40
-1
40
-1
40
-1
40
-1
40
0
40
0
40
0
40
0
41
1
41
1
41
1
41
1
10
121.20300642050282
20
214.59242498969488
30
0
10
116.62367472941632
20
215.10832566667116
30
0
10
105.35855427000477
20
218.00509507777221
30
0
10
100.50569843855712
20
226.81821869301146
30
0
0
SPLINE
5
121
100
AcDbEntity
8
0
100
AcDbSpline
70
4
71
3
72
8
73
4
74
0
42
0.000000001
43
0.0000000001
44
0.0000000001
40
0
40
0
40
0
40
0
40
1
40
1
40
1
40
1
41
1
41
1
41
1
41
1
10
151.439595585625
20
267.93694380580934
30
0
10
151.26137381493515
20
261.06431167769767
30
0
10
146.79961693202031
20
256.49144617843382
30
0
10
144.32855961391346
20
249.50707149359863
30
0
0
SPLINE
5
122
100
AcDbEntity
8
0
100
AcDbSpline
70
4
71
3
72
8
73
4
74
0
42
0.000000001
43
0.0000000001
44
0.0000000001
40
0
40
0
40
0
40
0
40
1
40
1
40
1
40
1
41
1
41
1
41
1
41
1
10
165.78524363943365
20
174.54734129558346
30
0
10
164.27747985211425
20
178.08967332164428
30
0
10
168.23893099127196
20
179.81289231099734
30
0
10
170.7175110684924
20
175.44466276470459
30
0
0
SPLINE
5
123
100
AcDbEntity
8
0
100
AcDbSpline
70
4
71
3
72
8
73
4
74
0
42
0.000000001
43
0.0000000001
44
0.0000000001
40
0
40
0
40
0
40
0
40
1
40
1
40
1
40
1
41
1
41
1
41
1
41
1
10
157.22873908789552
20
197.03865827539661
30
0
10
157.62626196555914
20
196.46790062465817
30
0
10
157.48582304120481
20
195.68295565263548
30
0
10
156.91506539046628
20
195.28543277497192
30
0
0
SPLINE
5
124
100
AcDbEntity
8
0
100
AcDbSpline
70
4
71
3
72
8
73
4
74
0
42
0.000000001
43
0.0000000001
44
0.0000000001
40
-1
40
-1
40
-1
40
-1
40
0
40
0
40
0
40
0
41
1
41
1
41
1
41
1
10
138.24315464317385
20
193.14157321562251
30
0
10
139.06761523188962
20
195.44822866320919
30
0
10
139.78941974258652
20
197.48938988184813
30
0
10
141.38179343859008
20
201.5899698019189
30
0
0
SPLINE
5
125
100
AcDbEntity
8
0
100
AcDbSpline
70
4
71
3
72
8
73
4
74
0
42
0.000000001
43
0.0000000001
44
0.0000000001
40
-1
40
-1
40
-1
40
-1
40
0
40
0
40
0
40
0
41
1
41
1
41
1
41
1
10
165.78524363943365
20
250.11899300600464
30
0
10
161.02177340082648
20
252.63413031150264
30
0
10
157.65829708583013
20
244.51394578856323
30
0
10
162.55929012306757
20
240.85002399862418
30
0
0
SPLINE
5
126
100
AcDbEntity
8
0
100
AcDbSpline
70
4
71
3
72
8
73
4
74
0
42
0.000000001
43
0.0000000001
44
0.0000000001
40
-1
40
-1
40
-1
40
-1
40
0
40
0
40
0
40
0
41
1
41
1
41
1
41
1
10
146.58783858416015
20
235.45874147555054
30
0
10
147.10373926113647
20
240.03807316663696
30
0
10
150.00050867223757
20
251.30319362604854
30
0
10
158.81363228747682
20
256.15604945749629
30
0
0
SPLINE
5
127
100
AcDbEntity
8
0
100
AcDbSpline
70
4
71
3
72
8
73
4
74
0
42
0.000000001
43
0.0000000001
44
0.0000000001
40
-1
40
-1
40
-1
40
-1
40
-3.0428118385308752e-06
40
-3.0428118385308752e-06
40
-3.0428118385308752e-06
40
-3.0428118385308752e-06
41
1
41
1
41
1
41
1
10
115.8117238974291
20
230.56387652860229
30
0
10
114.80312783016984
20
224.56301520071082
30
0
10
118.0477809041227
20
221.57343685267426
30
0
10
122.83582406758832
20
221.2357428354652
30
0
0
SPLINE
5
128
100
AcDbEntity
8
0
100
AcDbSpline
70
4
71
3
72
8
73
4
74
0
42
0.000000001
43
0.0000000001
44
0.0000000001
40
-1
40
-1
40
-1
40
-1
40
0
40
0
40
0
40
0
41
1
41
1
41
1
41
1
10
165.82133597810304
20
203.43059454867671
30
0
10
168.27155778922594
20
204.57904093158447
30
0
10
169.41518622528554
20
207.63332339446649
30
0
10
167.45415507001587
20
210.07390931189326
30
0
0
SPLINE
5
129
100
AcDbEntity
8
0
100
AcDbSpline
70
4
71
3
72
8
73
4
74
0
42
0.000000001
43
0.0000000001
44
0.0000000001
40
3.0428118389103981e-06
40
3.0428118389103981e-06
40
3.0428118389103981e-06
40
3.0428118389103981e-06
40
1
40
1
40
1
40
1
41
1
41
1
41
1
41
1
10
153.23115642993059
20
190.84041047312294
30
0
10
153.56885044713954
20
186.0523673096574
30
0
10
156.55842879517598
20
182.80771423570462
30
0
10
162.55929012306757
20
183.81631030296387
30
0
0
SPLINE
5
130
100
AcDbEntity
8
0
100
AcDbSpline
70
4
71
3
72
8
73
4
74
0
42
0.000000001
43
0.0000000001
44
0.0000000001
40
0
40
0
40
0
40
0
40
1
40
1
40
1
40
1
41
1
41
1
41
1
41
1
10
164.60636811853755
20
216.02225637361087
30
0
10
162.57327907400395
20
215.7557901027551
30
0
10
159.64603826222282
20
215.61222373921879
30
0
10
155.50568914930915
20
215.44794865677372
30
0
0
SPLINE
5
131
100
AcDbEntity
8
0
100
AcDbSpline
70
4
71
3
72
8
73
4
74
0
42
0.000000001
43
0.0000000001
44
0.0000000001
40
-1
40
-1
40
-1
40
-1
40
0
40
0
40
0
40
0
41
1
41
1
41
1
41
1
10
170.7175110684924
20
249.22167153688355
30
0
10
168.23893099127196
20
244.85344199059085
30
0
10
164.27747985211425
20
246.57666097994388
30
0
10
165.78524363943365
20
250.11899300600464
30
0
0
SPLINE
5
132
100
AcDbEntity
8
0
100
AcDbSpline
70
4
71
3
72
8
73
4
74
0
42
0.000000001
43
0.0000000001
44
0.0000000001
40
-1
40
-1
40
-1
40
-1
40
0
40
0
40
0
40
0
41
1
41
1
41
1
41
1
10
158.81363228747682
20
256.15604945749629
30
0
10
164.88842932261235
20
259.06494826110105
30
0
10
173.03608459512441
20
254.55116600476435
30
0
10
170.7175110684924
20
249.22167153688355
30
0
0
SPLINE
5
133
100
AcDbEntity
8
0
100
AcDbSpline
70
4
71
3
72
8
73
4
74
0
42
0.000000001
43
0.0000000001
44
0.0000000001
40
-1
40
-1
40
-1
40
-1
40
0
40
0
40
0
40
0
41
1
41
1
41
1
41
1
10
151.439595585625
20
156.72939049577874
30
0
10
151.66481346942987
20
152.06071547454343
30
0
10
148.17201331798339
20
145.91834039545896
30
0
10
144.32855961391346
20
144.4404985938281
30
0
0
SPLINE
5
134
100
AcDbEntity
8
0
100
AcDbSpline
70
4
71
3
72
8
73
4
74
0
42
0.000000001
43
0.0000000001
44
0.0000000001
40
3.0096524487652189e-06
40
3.0096524487652189e-06
40
3.0096524487652189e-06
40
3.0096524487652189e-06
40
1
40
1
40
1
40
1
41
1
41
1
41
1
41
1
10
137.21752160920227
20
267.9369859591169
30
0
10
136.99236904532114
20
272.60565580008523
30
0
10
140.4851597398681
20
278.74804061648382
30
0
10
144.32855961391346
20
280.22583570775998
30
0
0
SPLINE
5
135
100
AcDbEntity
8
0
100
AcDbSpline
70
4
71
3
72
8
73
4
74
0
42
0.000000001
43
0.0000000001
44
0.0000000001
40
0
40
0
40
0
40
0
40
1
40
1
40
1
40
1
41
1
41
1
41
1
41
1
10
155.50568914930915
20
215.44794865677372
30
0
10
159.62845698249629
20
216.98199983829952
30
0
10
161.67963445905633
20
217.67476987983272
30
0
10
163.99774309608034
20
218.46643461982785
30
0
0
SPLINE
5
136
100
AcDbEntity
8
0
100
AcDbSpline
70
4
71
3
72
8
73
4
74
0
42
0.000000001
43
0.0000000001
44
0.0000000001
40
-1
40
-1
40
-1
40
-1
40
0
40
0
40
0
40
0
41
1
41
1
41
1
41
1
10
167.45415507001587
20
210.07390931189326
30
0
10
172.03348676110224
20
209.55800863491697
30
0
10
183.29860722051393
20
206.66123922381587
30
0
10
188.15146305196163
20
197.84811560857662
30
0
0
SPLINE
5
137
100
AcDbEntity
8
0
100
AcDbSpline
70
4
71
3
72
8
73
4
74
0
42
0.000000001
43
0.0000000001
44
0.0000000001
40
0
40
0
40
0
40
0
40
1
40
1
40
1
40
1
41
1
41
1
41
1
41
1
10
131.4284224026232
20
228.28612876210445
30
0
10
131.03089952495969
20
228.85688641284301
30
0
10
131.17133844931396
20
229.64183138486572
30
0
10
131.74209610005249
20
230.03935426252929
30
0
0
SPLINE
5
138
100
AcDbEntity
8
0
100
AcDbSpline
70
4
71
3
72
8
73
4
74
0
42
0.000000001
43
0.0000000001
44
0.0000000001
40
-1
40
-1
40
-1
40
-1
40
0
40
0
40
0
40
0
41
1
41
1
41
1
41
1
10
188.15146305196163
20
197.84811560857662
30
0
10
191.06036185556636
20
191.77331857344117
30
0
10
186.54657959922972
20
183.62566330092898
30
0
10
181.21708513134882
20
185.94423682756099
30
0
0
SPLINE
5
139
100
AcDbEntity
8
0
100
AcDbSpline
70
4
71
3
72
8
73
4
74
0
42
0.000000001
43
0.0000000001
44
0.0000000001
40
0
40
0
40
0
40
0
40
1
40
1
40
1
40
1
41
1
41
1
41
1
41
1
10
124.17753918424076
20
201.30820443668583
30
0
10
123.05745106743032
20
198.20730622491328
30
0
10
126.16756254598272
20
195.25686319541626
30
0
10
128.85073631348257
20
196.85528045632563
30
0
0
SPLINE
5
140
100
AcDbEntity
8
0
100
AcDbSpline
70
4
71
3
72
8
73
4
74
0
42
0.000000001
43
0.0000000001
44
0.0000000001
40
-1
40
-1
40
-1
40
-1
40
-3.0428118436122572e-06
40
-3.0428118436122572e-06
40
-3.0428118436122572e-06
40
-3.0428118436122572e-06
41
1
41
1
41
1
41
1
10
172.8454375930896
20
194.10245777298584
30
0
10
173.8540336603487
20
200.10331910087729
30
0
10
170.60938058639613
20
203.09289744891387
30
0
10
165.82133742293047
20
203.43059146612288
30
0
0
SPLINE
5
141
100
AcDbEntity
8
0
100
AcDbSpline
70
4
71
3
72
8
73
4
74
0
42
0.000000001
43
0.0000000001
44
0.0000000001
40
0
40
0
40
0
40
0
40
1
40
1
40
1
40
1
41
1
41
1
41
1
41
1
10
158.81363228747682
20
168.51028484409176
30
0
10
150.00050867223757
20
173.36314067553954
30
0
10
147.10373926113647
20
184.62826113495115
30
0
10
146.58783858416015
20
189.20759282603757
30
0
0
SPLINE
5
142
100
AcDbEntity
8
0
100
AcDbSpline
70
4
71
3
72
8
73
4
74
0
42
0.000000001
43
0.0000000001
44
0.0000000001
40
0
40
0
40
0
40
0
40
1
40
1
40
1
40
1
41
1
41
1
41
1
41
1
10
142.06932290635854
20
235.45874147555054
30
0
10
139.62873698893196
20
237.41977263082023
30
0
10
136.57445452604981
20
236.27614419476075
30
0
10
135.42600814314204
20
233.8259223836377
30
0
0
SPLINE
5
143
100
AcDbEntity
8
0
100
AcDbSpline
70
4
71
3
72
8
73
4
74
0
42
0.000000001
43
0.0000000001
44
0.0000000001
40
0
40
0
40
0
40
0
40
1
40
1
40
1
40
1
41
1
41
1
41
1
41
1
10
133.30366029384271
20
192.18208332708372
30
0
10
127.13081381407832
20
185.2936449522949
30
0
10
125.95536157120598
20
189.91430955581538
30
0
10
119.11307405569943
20
187.11761819854249
30
0
0
SPLINE
5
144
100
AcDbEntity
8
0
100
AcDbSpline
70
4
71
3
72
8
73
4
74
0
42
0.000000001
43
0.0000000001
44
0.0000000001
40
0
40
0
40
0
40
0
40
1
40
1
40
1
40
1
41
1
41
1
41
1
41
1
10
137.27462053862183
20
221.4269361699377
30
0
10
134.37227245222289
20
224.73251259737307
30
0
10
132.99408607750365
20
226.40222701909667
30
0
10
131.4284224026232
20
228.28612876210445
30
0
0
SPLINE
5
145
100
AcDbEntity
8
0
100
AcDbSpline
70
4
71
3
72
8
73
4
74
0
42
0.000000001
43
0.0000000001
44
0.0000000001
40
0
40
0
40
0
40
0
40
1
40
1
40
1
40
1
41
1
41
1
41
1
41
1
10
146.58783858416015
20
189.20759282603757
30
0
10
149.02842450158693
20
187.24656167076773
30
0
10
152.08270696446888
20
188.39019010682739
30
0
10
153.23115334737679
20
190.84041191795041
30
0
0
SPLINE
5
146
100
AcDbEntity
8
0
100
AcDbSpline
70
4
71
3
72
8
73
4
74
0
42
0.000000001
43
0.0000000001
44
0.0000000001
40
0
40
0
40
0
40
0
40
1
40
1
40
1
40
1
41
1
41
1
41
1
41
1
10
162.55929012306757
20
183.81631030296387
30
0
10
157.65829708583013
20
180.1523885130249
30
0
10
161.02177340082648
20
172.03220399008541
30
0
10
165.78524363943365
20
174.54734129558346
30
0
0
SPLINE
5
147
100
AcDbEntity
8
0
100
AcDbSpline
70
4
71
3
72
8
73
4
74
0
42
0.000000001
43
0.0000000001
44
0.0000000001
40
-1
40
-1
40
-1
40
-1
40
0
40
0
40
0
40
0
41
1
41
1
41
1
41
1
10
133.30366029384271
20
232.48425097450439
30
0
10
130.20280434476192
20
233.60433909131473
30
0
10
127.25231905257317
20
230.49422761276244
30
0
10
128.85073631348257
20
227.81105384526242
30
0
0
SPLINE
5
148
100
AcDbEntity
8
0
100
AcDbSpline
70
4
71
3
72
8
73
4
74
0
42
0.000000001
43
0.0000000001
44
0.0000000001
40
0
40
0
40
0
40
0
40
1
40
1
40
1
40
1
41
1
41
1
41
1
41
1
10
165.5241447304175
20
217.54865800794803
30
0
10
165.69222345511099
20
216.87372282229131
30
0
10
165.2813033041943
20
216.19033509830444
30
0
10
164.60636811853755
20
216.02225637361087
30
0
0
SPLINE
5
149
100
AcDbEntity
8
0
100
AcDbSpline
70
4
71
3
72
8
73
4
74
0
42
0.000000001
43
0.0000000001
44
0.0000000001
40
0
40
0
40
0
40
0
40
1
40
1
40
1
40
1
41
1
41
1
41
1
41
1
10
155.16183989004148
20
195.59910647240119
30
0
10
154.1884455759498
20
197.40385019394773
30
0
10
153.01126056271968
20
200.08778468989746
30
0
10
151.382540951897
20
203.89785086756348
30
0
0
SPLINE
5
150
100
AcDbEntity
8
0
100
AcDbSpline
70
4
71
3
72
8
73
4
74
0
42
0.000000001
43
0.0000000001
44
0.0000000001
40
0
40
0
40
0
40
0
40
1
40
1
40
1
40
1
41
1
41
1
41
1
41
1
10
163.99774309608034
20
218.46643461982785
30
0
10
164.67267828173703
20
218.63451334452151
30
0
10
165.35610826841548
20
218.22359319360473
30
0
10
165.5241447304175
20
217.54865800794803
30
0
0
SPLINE
5
151
100
AcDbEntity
8
0
100
AcDbSpline
70
4
71
3
72
8
73
4
74
0
42
0.000000001
43
0.0000000001
44
0.0000000001
40
-1
40
-1
40
-1
40
-1
40
0
40
0
40
0
40
0
41
1
41
1
41
1
41
1
10
119.11307405569943
20
237.54871610304559
30
0
10
125.95536157120598
20
234.75202474577273
30
0
10
127.13081381407832
20
239.37268934929321
30
0
10
133.30366029384271
20
232.48425097450439
30
0
0
SPLINE
5
152
100
AcDbEntity
8
0
100
AcDbSpline
70
4
71
3
72
8
73
4
74
0
42
0.000000001
43
0.0000000001
44
0.0000000001
40
0
40
0
40
0
40
0
40
1
40
1
40
1
40
1
41
1
41
1
41
1
41
1
10
156.91506539046628
20
195.28543277497192
30
0
10
156.34430773972781
20
194.8879098973083
30
0
10
155.55936276770501
20
195.02834882166255
30
0
10
155.16183989004148
20
195.59910647240119
30
0
0
SPLINE
5
153
100
AcDbEntity
8
0
100
AcDbSpline
70
4
71
3
72
8
73
4
74
0
42
0.000000001
43
0.0000000001
44
0.0000000001
40
-1
40
-1
40
-1
40
-1
40
0
40
0
40
0
40
0
41
1
41
1
41
1
41
1
10
100.50569843855712
20
226.81821869301146
30
0
10
97.596799634952376
20
232.89301572814696
30
0
10
102.11058189128906
20
241.04067100065919
30
0
10
107.44007635916994
20
238.72209747402709
30
0
0
SPLINE
5
154
100
AcDbEntity
8
0
100
AcDbSpline
70
4
71
3
72
8
73
4
74
0
42
0.000000001
43
0.0000000001
44
0.0000000001
40
-1
40
-1
40
-1
40
-1
40
-3.0428118435878428e-06
40
-3.0428118435878428e-06
40
-3.0428118435878428e-06
40
-3.0428118435878428e-06
41
1
41
1
41
1
41
1
10
162.55929012306757
20
240.85002399862418
30
0
10
156.55842879517598
20
241.85862006588349
30
0
10
153.56885044713977
20
238.61396699193079
30
0
10
153.23115642993059
20
233.82592382846522
30
0
0
SPLINE
5
155
100
AcDbEntity
8
0
100
AcDbSpline
70
4
71
3
72
8
73
4
74
0
42
0.000000001
43
0.0000000001
44
0.0000000001
40
0
40
0
40
0
40
0
40
1
40
1
40
1
40
1
41
1
41
1
41
1
41
1
10
119.11307405569943
20
187.11761819854249
30
0
10
121.90976541297239
20
193.95994797674069
30
0
10
117.28905854676015
20
195.13535795692133
30
0
10
124.17753918424076
20
201.30820443668583
30
0
0
SPLINE
5
156
100
AcDbEntity
8
0
100
AcDbSpline
70
4
71
3
72
8
73
4
74
0
42
0.000000001
43
0.0000000001
44
0.0000000001
40
0
40
0
40
0
40
0
40
1
40
1
40
1
40
1
41
1
41
1
41
1
41
1
10
115.8117238974291
20
194.10245777298584
30
0
10
112.14780210749026
20
199.0034508102234
30
0
10
104.02761758455078
20
195.63997449522702
30
0
10
106.54275489004881
20
190.87650425661985
30
0
0
SPLINE
5
157
100
AcDbEntity
8
0
100
AcDbSpline
70
4
71
3
72
8
73
4
74
0
42
0.000000001
43
0.0000000001
44
0.0000000001
40
0
40
0
40
0
40
0
40
1
40
1
40
1
40
1
41
1
41
1
41
1
41
1
10
212.22124930222535
20
212.33318828213993
30
0
10
210.74340750059446
20
208.48973457807011
30
0
10
204.60103242151001
20
204.99693442662348
30
0
10
199.93235740027455
20
205.2221523104285
30
0
0
SPLINE
5
158
100
AcDbEntity
8
0
100
AcDbSpline
70
4
71
3
72
8
73
4
74
0
42
0.000000001
43
0.0000000001
44
0.0000000001
40
-1
40
-1
40
-1
40
-1
40
0
40
0
40
0
40
0
41
1
41
1
41
1
41
1
10
182.11440660047003
20
190.87650425661985
30
0
10
184.62954390596798
20
195.63997449522702
30
0
10
176.50935938302842
20
199.0034508102234
30
0
10
172.8454375930896
20
194.10245777298584
30
0
0
SPLINE
5
159
100
AcDbEntity
8
0
100
AcDbSpline
70
4
71
3
72
8
73
4
74
0
42
0.000000001
43
0.0000000001
44
0.0000000001
40
-1
40
-1
40
-1
40
-1
40
0
40
0
40
0
40
0
41
1
41
1
41
1
41
1
10
139.13920823154541
20
191.60232372302363
30
0
10
138.4666820193128
20
191.77991155333865
30
0
10
138.06552455016714
20
192.46908926608145
30
0
10
138.24315464317385
20
193.14157321562251
30
0
0
SPLINE
5
160
100
AcDbEntity
8
0
100
AcDbSpline
70
4
71
3
72
8
73
4
74
0
42
0.000000001
43
0.0000000001
44
0.0000000001
40
0
40
0
40
0
40
0
40
1
40
1
40
1
40
1
41
1
41
1
41
1
41
1
10
147.27536805192875
20
201.51140345814085
30
0
10
148.86774174793203
20
197.41082353807002
30
0
10
149.58954625862907
20
195.36966231943114
30
0
10
150.41400684734498
20
193.06300687184449
30
0
0
SPLINE
5
161
100
AcDbEntity
8
0
100
AcDbSpline
70
4
71
3
72
8
73
4
74
0
42
0.000000001
43
0.0000000001
44
0.0000000001
40
-1
40
-1
40
-1
40
-1
40
0
40
0
40
0
40
0
41
1
41
1
41
1
41
1
10
164.60636811853755
20
209.30253066389042
30
0
10
165.2813033041943
20
209.13445193919685
30
0
10
165.69222345511099
20
208.45106421520995
30
0
10
165.5241447304175
20
207.7761290295532
30
0
0
SPLINE
5
162
100
AcDbEntity
8
0
100
AcDbSpline
70
4
71
3
72
8
73
4
74
0
42
0.000000001
43
0.0000000001
44
0.0000000001
40
-1
40
-1
40
-1
40
-1
40
0
40
0
40
0
40
0
41
1
41
1
41
1
41
1
10
155.16183989004148
20
229.72568056510002
30
0
10
155.55936276770501
20
230.29643821583858
30
0
10
156.34430773972781
20
230.43687714019285
30
0
10
156.91506539046628
20
230.03935426252929
30
0
0
SPLINE
5
163
100
AcDbEntity
8
0
100
AcDbSpline
70
4
71
3
72
8
73
4
74
0
42
0.000000001
43
0.0000000001
44
0.0000000001
40
-1
40
-1
40
-1
40
-1
40
0
40
0
40
0
40
0
41
1
41
1
41
1
41
1
10
131.74209610005249
20
195.28543277497192
30
0
10
131.17133844931396
20
195.68295565263548
30
0
10
131.03089952495969
20
196.46790062465817
30
0
10
131.4284224026232
20
197.03865827539661
30
0
0
SPLINE
5
164
100
AcDbEntity
8
0
100
AcDbSpline
70
4
71
3
72
8
73
4
74
0
42
0.000000001
43
0.0000000001
44
0.0000000001
40
-1
40
-1
40
-1
40
-1
40
0
40
0
40
0
40
0
41
1
41
1
41
1
41
1
10
131.4284224026232
20
197.03865827539661
30
0
10
132.99408607750365
20
198.92256001840448
30
0
10
134.37227245222289
20
200.59227444012819
30
0
10
137.27462053862183
20
203.89785086756348
30
0
0
SPLINE
5
165
100
AcDbEntity
8
0
100
AcDbSpline
70
4
71
3
72
8
73
4
74
0
42
0.000000001
43
0.0000000001
44
0.0000000001
40
-1
40
-1
40
-1
40
-1
40
0
40
0
40
0
40
0
41
1
41
1
41
1
41
1
10
124.05079337198124
20
216.02225637361087
30
0
10
123.37585818632434
20
216.19033509830444
30
0
10
122.9649380354077
20
216.87372282229131
30
0
10
123.13301676010127
20
217.54865800794803
30
0
0
SPLINE
5
166
100
AcDbEntity
8
0
100
AcDbSpline
70
4
71
3
72
8
73
4
74
0
42
0.000000001
43
0.0000000001
44
0.0000000001
40
0
40
0
40
0
40
0
40
1
40
1
40
1
40
1
41
1
41
1
41
1
41
1
10
139.13920823154541
20
233.72246331447755
30
0
10
139.81169218108633
20
233.90009340748409
30
0
10
140.50082763113764
20
233.498893675647
30
0
10
140.67845772414421
20
232.82640972610596
30
0
0
SPLINE
5
167
100
AcDbEntity
8
0
100
AcDbSpline
70
4
71
3
72
8
73
4
74
0
42
0.000000001
43
0.0000000001
44
0.0000000001
40
-1
40
-1
40
-1
40
-1
40
0
40
0
40
0
40
0
41
1
41
1
41
1
41
1
10
107.44007635916994
20
238.72209747402709
30
0
10
111.80830590546265
20
236.24351739680665
30
0
10
110.08508691610956
20
232.28206625764892
30
0
10
106.54275489004881
20
233.7898300449682
30
0
0
SPLINE
5
168
100
AcDbEntity
8
0
100
AcDbSpline
70
4
71
3
72
8
73
4
74
0
42
0.000000001
43
0.0000000001
44
0.0000000001
40
-1
40
-1
40
-1
40
-1
40
0
40
0
40
0
40
0
41
1
41
1
41
1
41
1
10
156.91506539046628
20
230.03935426252929
30
0
10
157.48582304120481
20
229.64183138486572
30
0
10
157.62626196555914
20
228.85688641284301
30
0
10
157.22873908789552
20
228.28612876210445
30
0
0
SPLINE
5
169
100
AcDbEntity
8
0
100
AcDbSpline
70
4
71
3
72
8
73
4
74
0
42
0.000000001
43
0.0000000001
44
0.0000000001
40
-1
40
-1
40
-1
40
-1
40
0
40
0
40
0
40
0
41
1
41
1
41
1
41
1
10
137.27462053862183
20
203.89785086756348
30
0
10
135.645900927799
20
200.08778468989746
30
0
10
134.46871591456903
20
197.40385019394773
30
0
10
133.49532160047721
20
195.59910647240119
30
0
0
SPLINE
5
170
100
AcDbEntity
8
0
100
AcDbSpline
70
4
71
3
72
8
73
4
74
0
42
0.000000001
43
0.0000000001
44
0.0000000001
40
0
40
0
40
0
40
0
40
1
40
1
40
1
40
1
41
1
41
1
41
1
41
1
10
149.51795325897336
20
191.52375737924561
30
0
10
148.84546930943236
20
191.34612728623898
30
0
10
148.15633385938105
20
191.74732701807616
30
0
10
147.97870376637439
20
192.41981096761717
30
0
0
SPLINE
5
171
100
AcDbEntity
8
0
100
AcDbSpline
70
4
71
3
72
8
73
4
74
0
42
0.000000001
43
0.0000000001
44
0.0000000001
40
0
40
0
40
0
40
0
40
1
40
1
40
1
40
1
41
1
41
1
41
1
41
1
10
147.97870376637439
20
192.41981096761717
30
0
10
147.6834566025048
20
194.44892731913569
30
0
10
147.49834601307612
20
197.37384368287599
30
0
10
147.27536805192875
20
201.51140345814085
30
0
0
SPLINE
5
172
100
AcDbEntity
8
0
100
AcDbSpline
70
4
71
3
72
8
73
4
74
0
42
0.000000001
43
0.0000000001
44
0.0000000001
40
0
40
0
40
0
40
0
40
1
40
1
40
1
40
1
41
1
41
1
41
1
41
1
10
150.41400684734498
20
193.06300687184449
30
0
10
150.59163694035163
20
192.39052292230343
30
0
10
150.19047947120606
20
191.70134520956054
30
0
10
149.51795325897336
20
191.52375737924561
30
0
0
SPLINE
5
173
100
AcDbEntity
8
0
100
AcDbSpline
70
4
71
3
72
8
73
4
74
0
42
0.000000001
43
0.0000000001
44
0.0000000001
40
-1
40
-1
40
-1
40
-1
40
-0.13212285065366058
40
-0.13212285065366058
40
-0.13212285065366058
40
-0.13212285065366058
41
1
41
1
41
1
41
1
10
88.724804090244049
20
205.22211004773681
30
0
10
84.672967721589885
20
205.02664859275836
30
0
10
79.511124632456074
20
207.6316382770824
30
0
10
77.251803551823031
20
210.83585181112642
30
0
0
SPLINE
5
174
100
AcDbEntity
8
0
100
AcDbSpline
70
4
71
3
72
8
73
4
74
0
42
0.000000001
43
0.0000000001
44
0.0000000001
40
0
40
0
40
0
40
0
40
1
40
1
40
1
40
1
41
1
41
1
41
1
41
1
10
138.24315464317385
20
232.1832138218787
30
0
10
138.06552455016714
20
232.8556977714197
30
0
10
138.4666820193128
20
233.54487548416259
30
0
10
139.13920823154541
20
233.72246331447755
30
0
0
SPLINE
5
175
100
AcDbEntity
8
0
100
AcDbSpline
70
4
71
3
72
8
73
4
74
0
42
0.000000001
43
0.0000000001
44
0.0000000001
40
-1
40
-1
40
-1
40
-1
40
0
40
0
40
0
40
0
41
1
41
1
41
1
41
1
10
124.65941839443836
20
218.46643461982785
30
0
10
126.97752703146236
20
217.67476987983272
30
0
10
129.02870450802232
20
216.98199983829952
30
0
10
133.15147234120971
20
215.44794865677372
30
0
0
SPLINE
5
176
100
AcDbEntity
8
0
100
AcDbSpline
70
4
71
3
72
8
73
4
74
0
42
0.000000001
43
0.0000000001
44
0.0000000001
40
0
40
0
40
0
40
0
40
1
40
1
40
1
40
1
41
1
41
1
41
1
41
1
10
169.54408743481935
20
237.54871610304559
30
0
10
166.7473960775464
20
230.70638632484741
30
0
10
171.36810294375857
20
229.53097634466675
30
0
10
164.47962230627795
20
223.35812986490231
30
0
0
SPLINE
5
177
100
AcDbEntity
8
0
100
AcDbSpline
70
4
71
3
72
8
73
4
74
0
42
0.000000001
43
0.0000000001
44
0.0000000001
40
0
40
0
40
0
40
0
40
1
40
1
40
1
40
1
41
1
41
1
41
1
41
1
10
124.65941839443836
20
206.85835241767339
30
0
10
123.98448320878167
20
206.6902736929797
30
0
10
123.30105322210315
20
207.10119384389645
30
0
10
123.13301676010127
20
207.7761290295532
30
0
0
SPLINE
5
178
100
AcDbEntity
8
0
100
AcDbSpline
70
4
71
3
72
8
73
4
74
0
42
0.000000001
43
0.0000000001
44
0.0000000001
40
0
40
0
40
0
40
0
40
1
40
1
40
1
40
1
41
1
41
1
41
1
41
1
10
124.05079337198124
20
209.30253066389042
30
0
10
126.0838824165149
20
209.56899693474611
30
0
10
129.0111232282959
20
209.71256329828239
30
0
10
133.15147234120971
20
209.87683838072743
30
0
0
SPLINE
5
179
100
AcDbEntity
8
0
100
AcDbSpline
70
4
71
3
72
8
73
4
74
0
42
0.000000001
43
0.0000000001
44
0.0000000001
40
-1
40
-1
40
-1
40
-1
40
0
40
0
40
0
40
0
41
1
41
1
41
1
41
1
10
147.97870376637439
20
232.90497606988399
30
0
10
148.15633385938105
20
233.57746001942505
30
0
10
148.84546930943236
20
233.9786597512622
30
0
10
149.51795325897336
20
233.80102965825557
30
0
0
SPLINE
5
180
100
AcDbEntity
8
0
100
AcDbSpline
70
4
71
3
72
8
73
4
74
0
42
0.000000001
43
0.0000000001
44
0.0000000001
40
0
40
0
40
0
40
0
40
1
40
1
40
1
40
1
41
1
41
1
41
1
41
1
10
123.13301676010127
20
207.7761290295532
30
0
10
122.9649380354077
20
208.45106421520995
30
0
10
123.37585818632434
20
209.13445193919685
30
0
10
124.05079337198124
20
209.30253066389042
30
0
0
SPLINE
5
181
100
AcDbEntity
8
0
100
AcDbSpline
70
4
71
3
72
8
73
4
74
0
42
0.000000001
43
0.0000000001
44
0.0000000001
40
-0.13212285065360352
40
-0.13212285065360352
40
-0.13212285065360352
40
-0.13212285065360352
40
0
40
0
40
0
40
0
41
1
41
1
41
1
41
1
10
77.251803551822462
20
210.83585181112699
30
0
10
76.907851712625188
20
211.3236510653644
30
0
10
76.631168859939933
20
211.82533795971128
30
0
10
76.435912188293358
20
212.33314601944818
30
0
0
SPLINE
5
182
100
AcDbEntity
8
0
100
AcDbSpline
70
4
71
3
72
8
73
4
74
0
42
0.000000001
43
0.0000000001
44
0.0000000001
40
0
40
0
40
0
40
0
40
1
40
1
40
1
40
1
41
1
41
1
41
1
41
1
10
133.15147234120971
20
209.87683838072743
30
0
10
129.02870450802232
20
208.34278719920164
30
0
10
126.97752703146236
20
207.65001715766843
30
0
10
124.65941839443836
20
206.85835241767339
30
0
0
SPLINE
5
183
100
AcDbEntity
8
0
100
AcDbSpline
70
4
71
3
72
8
73
4
74
0
42
0.000000001
43
0.0000000001
44
0.0000000001
40
0
40
0
40
0
40
0
40
1
40
1
40
1
40
1
41
1
41
1
41
1
41
1
10
164.47962230627795
20
223.35812986490231
30
0
10
165.59971042308831
20
226.45902807667485
30
0
10
162.48959894453611
20
229.40947110617188
30
0
10
159.8064251770362
20
227.81105384526242
30
0
0
SPLINE
5
184
100
AcDbEntity
8
0
100
AcDbSpline
70
4
71
3
72
8
73
4
74
0
42
0.000000001
43
0.0000000001
44
0.0000000001
40
0
40
0
40
0
40
0
40
1
40
1
40
1
40
1
41
1
41
1
41
1
41
1
10
141.38179343859008
20
223.73481723558226
30
0
10
139.78941974258652
20
227.83539715565303
30
0
10
139.06761523188962
20
229.87655837429202
30
0
10
138.24315464317385
20
232.1832138218787
30
0
0
SPLINE
5
185
100
AcDbEntity
8
0
100
AcDbSpline
70
4
71
3
72
8
73
4
74
0
42
0.000000001
43
0.0000000001
44
0.0000000001
40
-1
40
-1
40
-1
40
-1
40
0
40
0
40
0
40
0
41
1
41
1
41
1
41
1
10
133.15147234120971
20
215.44794865677372
30
0
10
129.0111232282959
20
215.61222373921879
30
0
10
126.0838824165149
20
215.7557901027551
30
0
10
124.05079337198124
20
216.02225637361087
30
0
0
SPLINE
5
186
100
AcDbEntity
8
0
100
AcDbSpline
70
4
71
3
72
8
73
4
74
0
42
0.000000001
43
0.0000000001
44
0.0000000001
40
-1
40
-1
40
-1
40
-1
40
0
40
0
40
0
40
0
41
1
41
1
41
1
41
1
10
150.41400684734498
20
232.26178016565669
30
0
10
149.58954625862907
20
229.95512471807012
30
0
10
148.86774174793203
20
227.91396349943116
30
0
10
147.27536805192875
20
223.81338357936031
30
0
0
SPLINE
5
187
100
AcDbEntity
8
0
100
AcDbSpline
70
4
71
3
72
8
73
4
74
0
42
0.000000001
43
0.0000000001
44
0.0000000001
40
-1
40
-1
40
-1
40
-1
40
0
40
0
40
0
40
0
41
1
41
1
41
1
41
1
10
76.435912188293358
20
212.33314601944818
30
0
10
77.913711727232737
20
216.17655746082644
30
0
10
84.056129069008705
20
219.6693576122729
30
0
10
88.724804090244049
20
219.44418199115958
30
0
0
SPLINE
5
188
100
AcDbEntity
8
0
100
AcDbSpline
70
4
71
3
72
8
73
4
74
0
42
0.000000001
43
0.0000000001
44
0.0000000001
40
-1
40
-1
40
-1
40
-1
40
0
40
0
40
0
40
0
41
1
41
1
41
1
41
1
10
169.54408743481935
20
187.11761819854249
30
0
10
162.70179991931272
20
189.91430955581538
30
0
10
161.52634767644037
20
185.2936449522949
30
0
10
155.35350119667598
20
192.18208332708372
30
0
0
SPLINE
5
189
100
AcDbEntity
8
0
100
AcDbSpline
70
4
71
3
72
8
73
4
74
0
42
0.000000001
43
0.0000000001
44
0.0000000001
40
-1
40
-1
40
-1
40
-1
40
0
40
0
40
0
40
0
41
1
41
1
41
1
41
1
10
149.51795325897336
20
233.80102965825557
30
0
10
150.19047947120606
20
233.62344182794064
30
0
10
150.59163694035163
20
232.93426411519766
30
0
10
150.41400684734498
20
232.26178016565669
30
0
0
SPLINE
5
190
100
AcDbEntity
8
0
100
AcDbSpline
70
4
71
3
72
8
73
4
74
0
42
0.000000001
43
0.0000000001
44
0.0000000001
40
0
40
0
40
0
40
0
40
1
40
1
40
1
40
1
41
1
41
1
41
1
41
1
10
159.8064251770362
20
227.81105384526242
30
0
10
161.40484243794555
20
230.49422761276244
30
0
10
158.45435714575677
20
233.60433909131473
30
0
10
155.35350119667598
20
232.48425097450439
30
0
0
SPLINE
5
191
100
AcDbEntity
8
0
100
AcDbSpline
70
4
71
3
72
8
73
4
74
0
42
0.000000001
43
0.0000000001
44
0.0000000001
40
-1
40
-1
40
-1
40
-1
40
0
40
0
40
0
40
0
41
1
41
1
41
1
41
1
10
123.13301676010127
20
217.54865800794803
30
0
10
123.30105322210315
20
218.22359319360473
30
0
10
123.98448320878167
20
218.63451334452151
30
0
10
124.65941839443836
20
218.46643461982785
30
0
0
SPLINE
5
192
100
AcDbEntity
8
0
100
AcDbSpline
70
4
71
3
72
8
73
4
74
0
42
0.000000001
43
0.0000000001
44
0.0000000001
40
-1
40
-1
40
-1
40
-1
40
0
40
0
40
0
40
0
41
1
41
1
41
1
41
1
10
155.35350119667598
20
192.18208332708372
30
0
10
158.45435714575677
20
191.06199521027347
30
0
10
161.40484243794555
20
194.17210668882572
30
0
10
159.8064251770362
20
196.85528045632563
30
0
0
SPLINE
5
193
100
AcDbEntity
8
0
100
AcDbSpline
70
4
71
3
72
8
73
4
74
0
42
0.000000001
43
0.0000000001
44
0.0000000001
40
0
40
0
40
0
40
0
40
1
40
1
40
1
40
1
41
1
41
1
41
1
41
1
10
140.67845772414421
20
232.82640972610596
30
0
10
140.97370488801388
20
230.79729337458733
30
0
10
141.15881547744272
20
227.87237701084712
30
0
10
141.38179343859008
20
223.73481723558226
30
0
0
SPLINE
5
194
100
AcDbEntity
8
0
100
AcDbSpline
70
4
71
3
72
8
73
4
74
0
42
0.000000001
43
0.0000000001
44
0.0000000001
40
-1
40
-1
40
-1
40
-1
40
0
40
0
40
0
40
0
41
1
41
1
41
1
41
1
10
147.27536805192875
20
223.81338357936031
30
0
10
147.49834601307612
20
227.95094335462522
30
0
10
147.6834566025048
20
230.87585971836546
30
0
10
147.97870376637439
20
232.90497606988399
30
0
0
SPLINE
5
195
100
AcDbEntity
8
0
100
AcDbSpline
70
4
71
3
72
8
73
4
74
0
42
0.000000001
43
0.0000000001
44
0.0000000001
40
0
40
0
40
0
40
0
40
1
40
1
40
1
40
1
41
1
41
1
41
1
41
1
10
122.87191785108519
20
250.11899300600464
30
0
10
124.37968163840452
20
246.57666097994388
30
0
10
120.4182304992468
20
244.85344199059085
30
0
10
117.93965042202615
20
249.22167153688355
30
0
0
SPLINE
5
196
100
AcDbEntity
8
0
100
AcDbSpline
70
4
71
3
72
8
73
4
74
0
42
0.000000001
43
0.0000000001
44
0.0000000001
40
-1
40
-1
40
-1
40
-1
40
0
40
0
40
0
40
0
41
1
41
1
41
1
41
1
10
88.724804090244049
20
219.44418199115958
30
0
10
95.597436218355654
20
219.26596022047005
30
0
10
100.17034398031115
20
214.8042033375549
30
0
10
107.15471866514633
20
212.33314601944818
30
0
0
SPLINE
5
197
100
AcDbEntity
8
0
100
AcDbSpline
70
4
71
3
72
8
73
4
74
0
42
0.000000001
43
0.0000000001
44
0.0000000001
40
-1
40
-1
40
-1
40
-1
40
0
40
0
40
0
40
0
41
1
41
1
41
1
41
1
10
129.8435292030419
20
168.51028484409176
30
0
10
123.76873216790649
20
165.60138604048706
30
0
10
115.62107689539431
20
170.1151682968237
30
0
10
117.93965042202615
20
175.44466276470459
30
0
0
SPLINE
5
198
100
AcDbEntity
8
0
100
AcDbSpline
70
4
71
3
72
8
73
4
74
0
42
0.000000001
43
0.0000000001
44
0.0000000001
40
-1
40
-1
40
-1
40
-1
40
0
40
0
40
0
40
0
41
1
41
1
41
1
41
1
10
164.47962230627795
20
201.30820443668583
30
0
10
171.36810294375857
20
195.13535795692133
30
0
10
166.7473960775464
20
193.95994797674069
30
0
10
169.54408743481935
20
187.11761819854249
30
0
0
SPLINE
5
199
100
AcDbEntity
8
0
100
AcDbSpline
70
4
71
3
72
8
73
4
74
0
42
0.000000001
43
0.0000000001
44
0.0000000001
40
0
40
0
40
0
40
0
40
1
40
1
40
1
40
1
41
1
41
1
41
1
41
1
10
155.35350119667598
20
232.48425097450439
30
0
10
161.52634767644037
20
239.37268934929321
30
0
10
162.70179991931272
20
234.75202474577273
30
0
10
169.54408743481935
20
237.54871610304559
30
0
0
SPLINE
5
200
100
AcDbEntity
8
0
100
AcDbSpline
70
4
71
3
72
8
73
4
74
0
42
0.000000001
43
0.0000000001
44
0.0000000001
40
-1
40
-1
40
-1
40
-1
40
0
40
0
40
0
40
0
41
1
41
1
41
1
41
1
10
159.8064251770362
20
196.85528045632563
30
0
10
162.48959894453611
20
195.25686319541626
30
0
10
165.59971042308831
20
198.20730622491328
30
0
10
164.47962230627795
20
201.30820443668583
30
0
0
SPLINE
5
201
100
AcDbEntity
8
0
100
AcDbSpline
70
4
71
3
72
8
73
4
74
0
42
0.000000001
43
0.0000000001
44
0.0000000001
40
-1
40
-1
40
-1
40
-1
40
-3.0428118315221981e-06
40
-3.0428118315221981e-06
40
-3.0428118315221981e-06
40
-3.0428118315221981e-06
41
1
41
1
41
1
41
1
10
126.09787136745105
20
183.81631030296387
30
0
10
132.0987326953427
20
182.80771423570462
30
0
10
135.08831104337929
20
186.05236730965743
30
0
10
135.42600506058832
20
190.84041047312303
30
0
0
SPLINE
5
202
100
AcDbEntity
8
0
100
AcDbSpline
70
4
71
3
72
8
73
4
74
0
42
0.000000001
43
0.0000000001
44
0.0000000001
40
-1
40
-1
40
-1
40
-1
40
0
40
0
40
0
40
0
41
1
41
1
41
1
41
1
10
142.06932290635854
20
189.20759282603757
30
0
10
141.55342222938231
20
184.62826113495115
30
0
10
138.65665281828115
20
173.36314067553954
30
0
10
129.8435292030419
20
168.51028484409176
30
0
0
SPLINE
5
203
100
AcDbEntity
8
0
100
AcDbSpline
70
4
71
3
72
8
73
4
74
0
42
0.000000001
43
0.0000000001
44
0.0000000001
40
-1
40
-1
40
-1
40
-1
40
0
40
0
40
0
40
0
41
1
41
1
41
1
41
1
10
144.32855961391346
20
144.4404985938281
30
0
10
140.48514817253539
20
145.91829813276729
30
0
10
136.99234802108876
20
152.06071547454343
30
0
10
137.21752364220222
20
156.72939049577874
30
0
0
SPLINE
5
204
100
AcDbEntity
8
0
100
AcDbSpline
70
4
71
3
72
8
73
4
74
0
42
0.000000001
43
0.0000000001
44
0.0000000001
40
-1
40
-1
40
-1
40
-1
40
0
40
0
40
0
40
0
41
1
41
1
41
1
41
1
10
135.42600814314204
20
190.84041191795041
30
0
10
136.57445452604981
20
188.39019010682739
30
0
10
139.62873698893196
20
187.24656167076773
30
0
10
142.06932290635854
20
189.20759282603757
30
0
0
SPLINE
5
205
100
AcDbEntity
8
0
100
AcDbSpline
70
4
71
3
72
8
73
4
74
0
42
0.000000001
43
0.0000000001
44
0.0000000001
40
-1
40
-1
40
-1
40
-1
40
0
40
0
40
0
40
0
41
1
41
1
41
1
41
1
10
117.93965042202615
20
175.44466276470459
30
0
10
120.4182304992468
20
179.81289231099734
30
0
10
124.37968163840452
20
178.08967332164428
30
0
10
122.87191785108519
20
174.54734129558346
30
0
0
SPLINE
5
206
100
AcDbEntity
8
0
100
AcDbSpline
70
4
71
3
72
8
73
4
74
0
42
0.000000001
43
0.0000000001
44
0.0000000001
40
0
40
0
40
0
40
0
40
1
40
1
40
1
40
1
41
1
41
1
41
1
41
1
10
181.21708513134882
20
238.72209747402709
30
0
10
186.54657959922972
20
241.04067100065919
30
0
10
191.06036185556636
20
232.89301572814696
30
0
10
188.15146305196163
20
226.81821869301146
30
0
0
SPLINE
5
207
100
AcDbEntity
8
0
100
AcDbSpline
70
4
71
3
72
8
73
4
74
0
42
0.000000001
43
0.0000000001
44
0.0000000001
40
0
40
0
40
0
40
0
40
1
40
1
40
1
40
1
41
1
41
1
41
1
41
1
10
126.09787136745105
20
240.85002399862418
30
0
10
130.99886440468873
20
244.51394578856323
30
0
10
127.6353880896923
20
252.63413031150264
30
0
10
122.87191785108519
20
250.11899300600464
30
0
0
SPLINE
5
208
100
AcDbEntity
8
0
100
AcDbSpline
70
4
71
3
72
8
73
4
74
0
42
0.000000001
43
0.0000000001
44
0.0000000001
40
-1
40
-1
40
-1
40
-1
40
0
40
0
40
0
40
0
41
1
41
1
41
1
41
1
10
122.87191785108519
20
174.54734129558346
30
0
10
127.6353880896923
20
172.03220399008541
30
0
10
130.99886440468873
20
180.1523885130249
30
0
10
126.09787136745105
20
183.81631030296387
30
0
0
SPLINE
5
209
100
AcDbEntity
8
0
100
AcDbSpline
70
4
71
3
72
8
73
4
74
0
42
0.000000001
43
0.0000000001
44
0.0000000001
40
0
40
0
40
0
40
0
40
1
40
1
40
1
40
1
41
1
41
1
41
1
41
1
10
167.45415507001587
20
214.59242498969488
30
0
10
169.41518622528554
20
217.03301090712159
30
0
10
168.27155778922594
20
220.08729337000361
30
0
10
165.82133597810304
20
221.23573975291134
30
0
0
SPLINE
5
210
100
AcDbEntity
8
0
100
AcDbSpline
70
4
71
3
72
8
73
4
74
0
42
0.000000001
43
0.0000000001
44
0.0000000001
40
3.0428118415778547e-06
40
3.0428118415778547e-06
40
3.0428118415778547e-06
40
3.0428118415778547e-06
40
1
40
1
40
1
40
1
41
1
41
1
41
1
41
1
10
165.82133742293047
20
221.2357428354652
30
0
10
170.60938058639613
20
221.57343685267426
30
0
10
173.8540336603487
20
224.56301520071082
30
0
10
172.8454375930896
20
230.56387652860229
30
0
0
SPLINE
5
211
100
AcDbEntity
8
0
100
AcDbSpline
70
4
71
3
72
8
73
4
74
0
42
0.000000001
43
0.0000000001
44
0.0000000001
40
0
40
0
40
0
40
0
40
1
40
1
40
1
40
1
41
1
41
1
41
1
41
1
10
188.15146305196163
20
226.81821869301146
30
0
10
183.29860722051393
20
218.00509507777221
30
0
10
172.03348676110224
20
215.10832566667116
30
0
10
167.45415507001587
20
214.59242498969488
30
0
0
SPLINE
5
212
100
AcDbEntity
8
0
100
AcDbSpline
70
4
71
3
72
8
73
4
74
0
42
0.000000001
43
0.0000000001
44
0.0000000001
40
-1
40
-1
40
-1
40
-1
40
0
40
0
40
0
40
0
41
1
41
1
41
1
41
1
10
144.32855961391346
20
175.15930507068111
30
0
10
146.79961693202031
20
168.17488812315432
30
0
10
151.26137381493515
20
163.60202262389038
30
0
10
151.439595585625
20
156.72939049577874
30
0
0
SPLINE
5
213
100
AcDbEntity
8
0
100
AcDbSpline
70
4
71
3
72
8
73
4
74
0
42
0.000000001
43
0.0000000001
44
0.0000000001
40
-1
40
-1
40
-1
40
-1
40
0
40
0
40
0
40
0
41
1
41
1
41
1
41
1
10
137.21752364220222
20
156.72939049577874
30
0
10
137.39574541289187
20
163.60202262389038
30
0
10
141.85750229580677
20
168.1749303858459
30
0
10
144.32855961391346
20
175.15930507068111
30
0
0
SPLINE
5
214
100
AcDbEntity
8
0
100
AcDbSpline
70
4
71
3
72
8
73
4
74
0
42
0.000000001
43
0.0000000001
44
0.0000000001
40
3.0428118398944962e-06
40
3.0428118398944962e-06
40
3.0428118398944962e-06
40
3.0428118398944962e-06
40
1
40
1
40
1
40
1
41
1
41
1
41
1
41
1
10
135.42600506058824
20
233.82592382846519
30
0
10
135.08831104337929
20
238.61396699193077
30
0
10
132.0987326953427
20
241.8586200658834
30
0
10
126.09787136745105
20
240.85002399862418
30
0
0
SPLINE
5
215
100
AcDbEntity
8
0
100
AcDbSpline
70
4
71
3
72
8
73
4
74
0
42
0.000000001
43
0.0000000001
44
0.0000000001
40
0
40
0
40
0
40
0
40
1
40
1
40
1
40
1
41
1
41
1
41
1
41
1
10
182.11440660047003
20
233.7898300449682
30
0
10
178.57207457440916
20
232.28206625764892
30
0
10
176.84885558505613
20
236.24351739680665
30
0
10
181.21708513134882
20
238.72209747402709
30
0
0
SPLINE
5
216
100
AcDbEntity
8
0
100
AcDbSpline
70
4
71
3
72
8
73
4
74
0
42
0.000000001
43
0.0000000001
44
0.0000000001
40
0
40
0
40
0
40
0
40
1
40
1
40
1
40
1
41
1
41
1
41
1
41
1
10
172.8454375930896
20
230.56387652860229
30
0
10
176.50935938302842
20
225.66288349136474
30
0
10
184.62954390596798
20
229.02635980636109
30
0
10
182.11440660047003
20
233.7898300449682
30
0
0
SPLINE
5
217
100
AcDbEntity
8
0
100
AcDbSpline
70
4
71
3
72
8
73
4
74
0
42
0.000000001
43
0.0000000001
44
0.0000000001
40
-1
40
-1
40
-1
40
-1
40
0
40
0
40
0
40
0
41
1
41
1
41
1
41
1
10
106.54275489004881
20
233.7898300449682
30
0
10
104.02761758455078
20
229.02635980636109
30
0
10
112.14780210749026
20
225.66288349136474
30
0
10
115.8117238974291
20
230.56387652860229
30
0
0
SPLINE
5
218
100
AcDbEntity
8
0
100
AcDbSpline
70
4
71
3
72
8
73
4
74
0
42
0.000000001
43
0.0000000001
44
0.0000000001
40
0
40
0
40
0
40
0
40
0.99999795275309877
40
0.99999795275309877
40
0.99999795275309877
40
0.99999795275309877
41
1
41
1
41
1
41
1
10
144.32855961391346
20
249.50707149359863
30
0
10
141.85750735467124
20
256.49143187969446
30
0
10
137.3957636815195
20
261.06433521663683
30
0
10
137.21752473684802
20
267.93694385860533
30
0
0
SPLINE
5
219
100
AcDbEntity
8
0
100
AcDbSpline
70
4
71
3
72
8
73
4
74
0
42
0.000000001
43
0.0000000001
44
0.0000000001
40
-1
40
-1
40
-1
40
-1
40
0
40
0
40
0
40
0
41
1
41
1
41
1
41
1
10
163.99774309608034
20
206.85835241767339
30
0
10
161.67963445905633
20
207.65001715766843
30
0
10
159.62845698249629
20
208.34278719920164
30
0
10
155.50568914930915
20
209.87683838072743
30
0
0
SPLINE
5
220
100
AcDbEntity
8
0
100
AcDbSpline
70
4
71
3
72
8
73
4
74
0
42
0.000000001
43
0.0000000001
44
0.0000000001
40
0
40
0
40
0
40
0
40
1
40
1
40
1
40
1
41
1
41
1
41
1
41
1
10
131.74209610005249
20
230.03935426252929
30
0
10
132.31285375079102
20
230.43687714019285
30
0
10
133.09779872281359
20
230.29643821583858
30
0
10
133.49532160047721
20
229.72568056510002
30
0
0
SPLINE
5
221
100
AcDbEntity
8
0
100
AcDbSpline
70
4
71
3
72
8
73
4
74
0
42
0.000000001
43
0.0000000001
44
0.0000000001
40
0
40
0
40
0
40
0
40
1
40
1
40
1
40
1
41
1
41
1
41
1
41
1
10
129.8435292030419
20
256.15604945749629
30
0
10
138.65665281828115
20
251.30319362604854
30
0
10
141.55342222938231
20
240.03807316663696
30
0
10
142.06932290635854
20
235.45874147555054
30
0
0
SPLINE
5
222
100
AcDbEntity
8
0
100
AcDbSpline
70
4
71
3
72
8
73
4
74
0
42
0.000000001
43
0.0000000001
44
0.0000000001
40
-1
40
-1
40
-1
40
-1
40
0
40
0
40
0
40
0
41
1
41
1
41
1
41
1
10
157.22873908789552
20
228.28612876210445
30
0
10
155.66307541301512
20
226.40222701909667
30
0
10
154.28488903829594
20
224.73251259737307
30
0
10
151.382540951897
20
221.4269361699377
30
0
0
SPLINE
5
223
100
AcDbEntity
8
0
100
AcDbSpline
70
4
71
3
72
8
73
4
74
0
42
0.000000001
43
0.0000000001
44
0.0000000001
40
0
40
0
40
0
40
0
40
1
40
1
40
1
40
1
41
1
41
1
41
1
41
1
10
100.50569843855712
20
197.84811560857662
30
0
10
105.35855427000477
20
206.66123922381587
30
0
10
116.62367472941632
20
209.55800863491697
30
0
10
121.20300642050282
20
210.07390931189326
30
0
0
SPLINE
5
224
100
AcDbEntity
8
0
100
AcDbSpline
70
4
71
3
72
8
73
4
74
0
42
0.000000001
43
0.0000000001
44
0.0000000001
40
0
40
0
40
0
40
0
40
1
40
1
40
1
40
1
41
1
41
1
41
1
41
1
10
133.49532160047721
20
229.72568056510002
30
0
10
134.46871591456903
20
227.92093684355342
30
0
10
135.645900927799
20
225.23700234760378
30
0
10
137.27462053862183
20
221.4269361699377
30
0
0
SPLINE
5
225
100
AcDbEntity
8
0
100
AcDbSpline
70
4
71
3
72
8
73
4
74
0
42
0.000000001
43
0.0000000001
44
0.0000000001
40
-1
40
-1
40
-1
40
-1
40
0
40
0
40
0
40
0
41
1
41
1
41
1
41
1
10
140.67845772414421
20
192.49837731139522
30
0
10
140.50082763113764
20
191.82589336185427
30
0
10
139.81169218108633
20
191.42469363001703
30
0
10
139.13920823154541
20
191.60232372302363
30
0
0
SPLINE
5
226
100
AcDbEntity
8
0
100
AcDbSpline
70
4
71
3
72
8
73
4
74
0
42
0.000000001
43
0.0000000001
44
0.0000000001
40
-1
40
-1
40
-1
40
-1
40
0
40
0
40
0
40
0
41
1
41
1
41
1
41
1
10
181.21708513134882
20
185.94423682756099
30
0
10
176.84885558505613
20
188.42281690478146
30
0
10
178.57207457440916
20
192.38426804393919
30
0
10
182.11440660047003
20
190.87650425661985
30
0
0
SPLINE
5
227
100
AcDbEntity
8
0
100
AcDbSpline
70
4
71
3
72
8
73
4
74
0
42
0.000000001
43
0.0000000001
44
0.0000000001
40
3.0096524539107319e-06
40
3.0096524539107319e-06
40
3.0096524539107319e-06
40
3.0096524539107319e-06
40
1
40
1
40
1
40
1
41
1
41
1
41
1
41
1
10
199.93239955358229
20
219.44422628685129
30
0
10
204.60106939455073
20
219.66937885073239
30
0
10
210.74345421094915
20
216.1765881561854
30
0
10
212.22124930222535
20
212.33318828213993
30
0
0
SPLINE
5
228
100
AcDbEntity
8
0
100
AcDbSpline
70
4
71
3
72
8
73
4
74
0
42
0.000000001
43
0.0000000001
44
0.0000000001
40
-1
40
-1
40
-1
40
-1
40
0
40
0
40
0
40
0
41
1
41
1
41
1
41
1
10
155.50568914930915
20
209.87683838072743
30
0
10
159.64603826222282
20
209.71256329828239
30
0
10
162.57327907400395
20
209.56899693474611
30
0
10
164.60636811853755
20
209.30253066389042
30
0
0
SPLINE
5
229
100
AcDbEntity
8
0
100
AcDbSpline
70
4
71
3
72
8
73
4
74
0
42
0.000000001
43
0.0000000001
44
0.0000000001
40
0
40
0
40
0
40
0
40
1
40
1
40
1
40
1
41
1
41
1
41
1
41
1
10
199.93235740027455
20
205.2221523104285
30
0
10
193.05972527216306
20
205.40037408111814
30
0
10
188.48685977289915
20
209.86213096403321
30
0
10
181.50248508806391
20
212.33318828213993
30
0
0
SPLINE
5
230
100
AcDbEntity
8
0
100
AcDbSpline
70
4
71
3
72
8
73
4
74
0
42
0.000000001
43
0.0000000001
44
0.0000000001
40
3.0428118299594104e-06
40
3.0428118299594104e-06
40
3.0428118299594104e-06
40
3.0428118299594104e-06
40
1
40
1
40
1
40
1
41
1
41
1
41
1
41
1
10
122.83582406758846
20
203.43059146612296
30
0
10
118.0477809041227
20
203.09289744891396
30
0
10
114.80312783016984
20
200.10331910087731
30
0
10
115.8117238974291
20
194.10245777298584
30
0
0
SPLINE
5
231
100
AcDbEntity
8
0
100
AcDbSpline
70
4
71
3
72
8
73
4
74
0
42
0.000000001
43
0.0000000001
44
0.0000000001
40
-1
40
-1
40
-1
40
-1
40
0
40
0
40
0
40
0
41
1
41
1
41
1
41
1
10
141.38179343859008
20
201.5899698019189
30
0
10
141.15881547744272
20
197.45241002665404
30
0
10
140.97370488801388
20
194.52749366291386
30
0
10
140.67845772414421
20
192.49837731139522
30
0
0
SPLINE
5
232
100
AcDbEntity
8
0
100
AcDbSpline
70
4
71
3
72
8
73
4
74
0
42
0.000000001
43
0.0000000001
44
0.0000000001
40
-1
40
-1
40
-1
40
-1
40
0
40
0
40
0
40
0
41
1
41
1
41
1
41
1
10
128.4953216004773
20
510.59910647240116
30
0
10
128.09779872281371
20
510.02834882166258
30
0
10
127.31285375079099
20
509.8879098973083
30
0
10
126.74209610005249
20
510.28543277497192
30
0
0
SPLINE
5
233
100
AcDbEntity
8
0
100
AcDbSpline
70
4
71
3
72
8
73
4
74
0
42
0.000000001
43
0.0000000001
44
0.0000000001
40
-1
40
-1
40
-1
40
-1
40
0
40
0
40
0
40
0
41
1
41
1
41
1
41
1
10
132.2746205386218
20
518.89785086756342
30
0
10
130.645900927799
20
515.08778468989749
30
0
10
129.46871591456909
20
512.40385019394773
30
0
10
128.4953216004773
20
510.59910647240116
30
0
0
SPLINE
5
234
100
AcDbEntity
8
0
100
AcDbSpline
70
4
71
3
72
8
73
4
74
0
42
0.000000001
43
0.0000000001
44
0.0000000001
40
-1
40
-1
40
-1
40
-1
40
0
40
0
40
0
40
0
41
1
41
1
41
1
41
1
10
126.42842240262333
20
512.03865827539653
30
0
10
127.99408607750365
20
513.92256001840451
30
0
10
129.37227245222286
20
515.59227444012822
30
0
10
132.2746205386218
20
518.89785086756342
30
0
0
SPLINE
5
235
100
AcDbEntity
8
0
100
AcDbSpline
70
4
71
3
72
8
73
4
74
0
42
0.000000001
43
0.0000000001
44
0.0000000001
40
-1
40
-1
40
-1
40
-1
40
0
40
0
40
0
40
0
41
1
41
1
41
1
41
1
10
142.27536805192869
20
538.81338357936033
30
0
10
142.49834601307614
20
542.95094335462522
30
0
10
142.68345660250486
20
545.87585971836552
30
0
10
142.97870376637451
20
547.90497606988401
30
0
0
SPLINE
5
236
100
AcDbEntity
8
0
100
AcDbSpline
70
4
71
3
72
8
73
4
74
0
42
0.000000001
43
0.0000000001
44
0.0000000001
40
-1
40
-1
40
-1
40
-1
40
0
40
0
40
0
40
0
41
1
41
1
41
1
41
1
10
126.74209610005249
20
510.28543277497192
30
0
10
126.17133844931399
20
510.68295565263548
30
0
10
126.03089952495971
20
511.46790062465817
30
0
10
126.42842240262333
20
512.03865827539653
30
0
0
SPLINE
5
237
100
AcDbEntity
8
0
100
AcDbSpline
70
4
71
3
72
8
73
4
74
0
42
0.000000001
43
0.0000000001
44
0.0000000001
40
0
40
0
40
0
40
0
40
1
40
1
40
1
40
1
41
1
41
1
41
1
41
1
10
154.80642517703615
20
542.81105384526245
30
0
10
156.40484243794558
20
545.49422761276242
30
0
10
153.45435714575683
20
548.60433909131473
30
0
10
150.35350119667601
20
547.48425097450433
30
0
0
SPLINE
5
238
100
AcDbEntity
8
0
100
AcDbSpline
70
4
71
3
72
8
73
4
74
0
42
0.000000001
43
0.0000000001
44
0.0000000001
40
0
40
0
40
0
40
0
40
1
40
1
40
1
40
1
41
1
41
1
41
1
41
1
10
150.35350119667601
20
547.48425097450433
30
0
10
156.52634767644042
20
554.37268934929318
30
0
10
157.70179991931272
20
549.7520247457727
30
0
10
164.54408743481935
20
552.54871610304565
30
0
0
SPLINE
5
239
100
AcDbEntity
8
0
100
AcDbSpline
70
4
71
3
72
8
73
4
74
0
42
0.000000001
43
0.0000000001
44
0.0000000001
40
0
40
0
40
0
40
0
40
1
40
1
40
1
40
1
41
1
41
1
41
1
41
1
10
164.54408743481935
20
552.54871610304565
30
0
10
161.74739607754643
20
545.70638632484747
30
0
10
166.36810294375857
20
544.53097634466667
30
0
10
159.47962230627803
20
538.35812986490237
30
0
0
SPLINE
5
240
100
AcDbEntity
8
0
100
AcDbSpline
70
4
71
3
72
8
73
4
74
0
42
0.000000001
43
0.0000000001
44
0.0000000001
40
0
40
0
40
0
40
0
40
1
40
1
40
1
40
1
41
1
41
1
41
1
41
1
10
159.47962230627803
20
538.35812986490237
30
0
10
160.59971042308834
20
541.45902807667483
30
0
10
157.48959894453611
20
544.40947110617185
30
0
10
154.80642517703615
20
542.81105384526245
30
0
0
SPLINE
5
241
100
AcDbEntity
8
0
100
AcDbSpline
70
4
71
3
72
8
73
4
74
0
42
0.000000001
43
0.0000000001
44
0.0000000001
40
0
40
0
40
0
40
0
40
1
40
1
40
1
40
1
41
1
41
1
41
1
41
1
10
101.54275489004881
20
505.87650425661985
30
0
10
105.08508691610963
20
507.38426804393919
30
0
10
106.80830590546265
20
503.42281690478148
30
0
10
102.44007635916994
20
500.94423682756099
30
0
0
LWPOLYLINE
5
242
100
AcDbEntity
8
0
100
AcDbPolyline
90
18
70
1
43
0.0
10
52.5
20
615
10
237.4999999999585
20
615
10
237.4999999999585
20
617.5
10
317.4999999999585
20
617.5
10
317.4999999999585
20
615
10
502.5
20
615
10
502.5
20
505
10
505
20
505
10
505
20
425
10
502.5
20
425
10
502.5
20
315
10
390
20
315
42
0.99999999999999989
10
165
20
315
10
52.5
20
315
10
52.5
20
425
10
50
20
425
10
50
20
505
10
52.5
20
505
0
SPLINE
5
243
100
AcDbEntity
8
0
100
AcDbSpline
70
4
71
3
72
8
73
4
74
0
42
0.000000001
43
0.0000000001
44
0.0000000001
40
0
40
0
40
0
40
0
40
1
40
1
40
1
40
1
41
1
41
1
41
1
41
1
10
110.81172389742918
20
509.10245777298587
30
0
10
107.14780210749026
20
514.0034508102234
30
0
10
99.02761758455074
20
510.63997449522702
30
0
10
101.54275489004881
20
505.87650425661985
30
0
0
SPLINE
5
244
100
AcDbEntity
8
0
100
AcDbSpline
70
4
71
3
72
8
73
4
74
0
42
0.000000001
43
0.0000000001
44
0.0000000001
40
3.0428118371529822e-06
40
3.0428118371529822e-06
40
3.0428118371529822e-06
40
3.0428118371529822e-06
40
1
40
1
40
1
40
1
41
1
41
1
41
1
41
1
10
117.83582406758832
20
518.43059146612291
30
0
10
113.0477809041227
20
518.09289744891396
30
0
10
109.80312783016998
20
515.10331910087734
30
0
10
110.81172389742918
20
509.10245777298587
30
0
0
SPLINE
5
245
100
AcDbEntity
8
0
100
AcDbSpline
70
4
71
3
72
8
73
4
74
0
42
0.000000001
43
0.0000000001
44
0.0000000001
40
0
40
0
40
0
40
0
40
1
40
1
40
1
40
1
41
1
41
1
41
1
41
1
10
102.44007635916994
20
500.94423682756099
30
0
10
97.110581891289044
20
498.62566330092898
30
0
10
92.596799634952419
20
506.77331857344114
30
0
10
95.505698438557118
20
512.84811560857656
30
0
0
SPLINE
5
246
100
AcDbEntity
8
0
100
AcDbSpline
70
4
71
3
72
8
73
4
74
0
42
0.000000001
43
0.0000000001
44
0.0000000001
40
0
40
0
40
0
40
0
40
1
40
1
40
1
40
1
41
1
41
1
41
1
41
1
10
95.505698438557118
20
512.84811560857656
30
0
10
100.35855427000484
20
521.66123922381587
30
0
10
111.62367472941651
20
524.55800863491697
30
0
10
116.20300642050293
20
525.07390931189332
30
0
0
SPLINE
5
247
100
AcDbEntity
8
0
100
AcDbSpline
70
4
71
3
72
8
73
4
74
0
42
0.000000001
43
0.0000000001
44
0.0000000001
40
0
40
0
40
0
40
0
40
1
40
1
40
1
40
1
41
1
41
1
41
1
41
1
10
116.20300642050293
20
525.07390931189332
30
0
10
114.24197526523318
20
522.63332339446652
30
0
10
115.38560370129275
20
519.57904093158447
30
0
10
117.83582551241577
20
518.43059454867671
30
0
0
SPLINE
5
248
100
AcDbEntity
8
0
100
AcDbSpline
70
4
71
3
72
8
73
4
74
0
42
0.000000001
43
0.0000000001
44
0.0000000001
40
-1
40
-1
40
-1
40
-1
40
0
40
0
40
0
40
0
41
1
41
1
41
1
41
1
10
95.505698438557118
20
541.81821869301143
30
0
10
92.596799634952419
20
547.89301572814691
30
0
10
97.110581891289044
20
556.04067100065913
30
0
10
102.44007635916994
20
553.72209747402712
30
0
0
SPLINE
5
249
100
AcDbEntity
8
0
100
AcDbSpline
70
4
71
3
72
8
73
4
74
0
42
0.000000001
43
0.0000000001
44
0.0000000001
40
0
40
0
40
0
40
0
40
1
40
1
40
1
40
1
41
1
41
1
41
1
41
1
10
167.84543759308957
20
545.56387652860235
30
0
10
171.50935938302854
20
540.66288349136471
30
0
10
179.62954390596798
20
544.02635980636103
30
0
10
177.11440660046998
20
548.7898300449682
30
0
0
SPLINE
5
250
100
AcDbEntity
8
0
100
AcDbSpline
70
4
71
3
72
8
73
4
74
0
42
0.000000001
43
0.0000000001
44
0.0000000001
40
0
40
0
40
0
40
0
40
1
40
1
40
1
40
1
41
1
41
1
41
1
41
1
10
176.21708513134891
20
553.72209747402712
30
0
10
181.54657959922972
20
556.04067100065913
30
0
10
186.06036185556636
20
547.89301572814691
30
0
10
183.15146305196168
20
541.81821869301143
30
0
0
SPLINE
5
251
100
AcDbEntity
8
0
100
AcDbSpline
70
4
71
3
72
8
73
4
74
0
42
0.000000001
43
0.0000000001
44
0.0000000001
40
0
40
0
40
0
40
0
40
1
40
1
40
1
40
1
41
1
41
1
41
1
41
1
10
177.11440660046998
20
548.7898300449682
30
0
10
173.57207457440921
20
547.28206625764892
30
0
10
171.84885558505616
20
551.24351739680662
30
0
10
176.21708513134891
20
553.72209747402712
30
0
0
SPLINE
5
252
100
AcDbEntity
8
0
100
AcDbSpline
70
4
71
3
72
8
73
4
74
0
42
0.000000001
43
0.0000000001
44
0.0000000001
40
-1
40
-1
40
-1
40
-1
40
0
40
0
40
0
40
0
41
1
41
1
41
1
41
1
10
102.15471866514648
20
527.33314601944824
30
0
10
95.170301717619594
20
524.86208870134146
30
0
10
90.597436218355668
20
520.40033181842648
30
0
10
83.72480409024412
20
520.22211004773681
30
0
0
SPLINE
5
253
100
AcDbEntity
8
0
100
AcDbSpline
70
4
71
3
72
8
73
4
74
0
42
0.000000001
43
0.0000000001
44
0.0000000001
40
-1
40
-1
40
-1
40
-1
40
0
40
0
40
0
40
0
41
1
41
1
41
1
41
1
10
158.99774309608031
20
521.85835241767336
30
0
10
156.67963445905636
20
522.65001715766846
30
0
10
154.62845698249629
20
523.34278719920167
30
0
10
150.50568914930909
20
524.87683838072735
30
0
0
SPLINE
5
254
100
AcDbEntity
8
0
100
AcDbSpline
70
4
71
3
72
8
73
4
74
0
42
0.000000001
43
0.0000000001
44
0.0000000001
40
0
40
0
40
0
40
0
40
1
40
1
40
1
40
1
41
1
41
1
41
1
41
1
10
162.45415507001587
20
529.5924249896949
30
0
10
164.41518622528562
20
532.03301090712159
30
0
10
163.27155778922605
20
535.08729337000364
30
0
10
160.82133597810304
20
536.2357397529114
30
0
0
SPLINE
5
255
100
AcDbEntity
8
0
100
AcDbSpline
70
4
71
3
72
8
73
4
74
0
42
0.000000001
43
0.0000000001
44
0.0000000001
40
3.0428118364820368e-06
40
3.0428118364820368e-06
40
3.0428118364820368e-06
40
3.0428118364820368e-06
40
1
40
1
40
1
40
1
41
1
41
1
41
1
41
1
10
160.8213374229305
20
536.23574283546509
30
0
10
165.60938058639607
20
536.57343685267426
30
0
10
168.85403366034879
20
539.56301520071077
30
0
10
167.84543759308957
20
545.56387652860235
30
0
0
SPLINE
5
256
100
AcDbEntity
8
0
100
AcDbSpline
70
4
71
3
72
8
73
4
74
0
42
0.000000001
43
0.0000000001
44
0.0000000001
40
-1
40
-1
40
-1
40
-1
40
0
40
0
40
0
40
0
41
1
41
1
41
1
41
1
10
136.38179343859005
20
516.58996980191887
30
0
10
136.15881547744263
20
512.45241002665398
30
0
10
135.97370488801391
20
509.52749366291386
30
0
10
135.67845772414421
20
507.49837731139519
30
0
0
SPLINE
5
257
100
AcDbEntity
8
0
100
AcDbSpline
70
4
71
3
72
8
73
4
74
0
42
0.000000001
43
0.0000000001
44
0.0000000001
40
-1
40
-1
40
-1
40
-1
40
0
40
0
40
0
40
0
41
1
41
1
41
1
41
1
10
135.67845772414421
20
507.49837731139519
30
0
10
135.50082763113767
20
506.8258933618543
30
0
10
134.81169218108639
20
506.42469363001703
30
0
10
134.13920823154538
20
506.60232372302357
30
0
0
SPLINE
5
258
100
AcDbEntity
8
0
100
AcDbSpline
70
4
71
3
72
8
73
4
74
0
42
0.000000001
43
0.0000000001
44
0.0000000001
40
-1
40
-1
40
-1
40
-1
40
0
40
0
40
0
40
0
41
1
41
1
41
1
41
1
10
83.72480409024412
20
534.44418199115955
30
0
10
90.597436218355668
20
534.26596022047011
30
0
10
95.170343980311259
20
529.8042033375549
30
0
10
102.15471866514648
20
527.33314601944824
30
0
0
SPLINE
5
259
100
AcDbEntity
8
0
100
AcDbSpline
70
4
71
3
72
8
73
4
74
0
42
0.000000001
43
0.0000000001
44
0.0000000001
40
-1
40
-1
40
-1
40
-1
40
0
40
0
40
0
40
0
41
1
41
1
41
1
41
1
10
133.24315464317382
20
508.14157321562249
30
0
10
134.06761523188965
20
510.44822866320919
30
0
10
134.78941974258663
20
512.48938988184807
30
0
10
136.38179343859005
20
516.58996980191887
30
0
0
SPLINE
5
260
100
AcDbEntity
8
0
100
AcDbSpline
70
4
71
3
72
8
73
4
74
0
42
0.000000001
43
0.0000000001
44
0.0000000001
40
0
40
0
40
0
40
0
40
1
40
1
40
1
40
1
41
1
41
1
41
1
41
1
10
146.382540951897
20
518.89785086756342
30
0
10
149.28488903829589
20
515.59227444012822
30
0
10
150.66307541301509
20
513.92256001840451
30
0
10
152.22873908789552
20
512.03865827539653
30
0
0
SPLINE
5
261
100
AcDbEntity
8
0
100
AcDbSpline
70
4
71
3
72
8
73
4
74
0
42
0.000000001
43
0.0000000001
44
0.0000000001
40
0
40
0
40
0
40
0
40
1
40
1
40
1
40
1
41
1
41
1
41
1
41
1
10
150.16183989004145
20
510.59910647240116
30
0
10
149.18844557594974
20
512.40385019394773
30
0
10
148.01126056271968
20
515.08778468989749
30
0
10
146.382540951897
20
518.89785086756342
30
0
0
SPLINE
5
262
100
AcDbEntity
8
0
100
AcDbSpline
70
4
71
3
72
8
73
4
74
0
42
0.000000001
43
0.0000000001
44
0.0000000001
40
-1
40
-1
40
-1
40
-1
40
-0.13212983856500135
40
-0.13212983856500135
40
-0.13212983856500135
40
-0.13212983856500135
41
1
41
1
41
1
41
1
10
83.72480409024412
20
520.22211004773681
30
0
10
79.673000345877057
20
520.02665016656101
30
0
10
74.511207755904266
20
522.6315963279236
30
0
10
72.251858126708569
20
525.83577441286877
30
0
0
SPLINE
5
263
100
AcDbEntity
8
0
100
AcDbSpline
70
4
71
3
72
8
73
4
74
0
42
0.000000001
43
0.0000000001
44
0.0000000001
40
-1
40
-1
40
-1
40
-1
40
0
40
0
40
0
40
0
41
1
41
1
41
1
41
1
10
160.5241447304175
20
522.7761290295532
30
0
10
160.35610826841551
20
522.10119384389645
30
0
10
159.67267828173706
20
521.69027369297976
30
0
10
158.99774309608031
20
521.85835241767336
30
0
0
SPLINE
5
264
100
AcDbEntity
8
0
100
AcDbSpline
70
4
71
3
72
8
73
4
74
0
42
0.000000001
43
0.0000000001
44
0.0000000001
40
-1
40
-1
40
-1
40
-1
40
0
40
0
40
0
40
0
41
1
41
1
41
1
41
1
10
116.20300642050293
20
529.5924249896949
30
0
10
111.62367472941651
20
530.10832566667113
30
0
10
100.35855427000484
20
533.00509507777224
30
0
10
95.505698438557118
20
541.81821869301143
30
0
0
SPLINE
5
265
100
AcDbEntity
8
0
100
AcDbSpline
70
4
71
3
72
8
73
4
74
0
42
0.000000001
43
0.0000000001
44
0.0000000001
40
-1
40
-1
40
-1
40
-1
40
0
40
0
40
0
40
0
41
1
41
1
41
1
41
1
10
134.13920823154538
20
506.60232372302357
30
0
10
133.46668201931277
20
506.77991155333865
30
0
10
133.0655245501672
20
507.46908926608143
30
0
10
133.24315464317382
20
508.14157321562249
30
0
0
SPLINE
5
266
100
AcDbEntity
8
0
100
AcDbSpline
70
4
71
3
72
8
73
4
74
0
42
0.000000001
43
0.0000000001
44
0.0000000001
40
0
40
0
40
0
40
0
40
1
40
1
40
1
40
1
41
1
41
1
41
1
41
1
10
183.15146305196168
20
541.81821869301143
30
0
10
178.29860722051393
20
533.00509507777224
30
0
10
167.03348676110232
20
530.10832566667113
30
0
10
162.45415507001587
20
529.5924249896949
30
0
0
SPLINE
5
267
100
AcDbEntity
8
0
100
AcDbSpline
70
4
71
3
72
8
73
4
74
0
42
0.000000001
43
0.0000000001
44
0.0000000001
40
-0.13212983856494545
40
-0.13212983856494545
40
-0.13212983856494545
40
-0.13212983856494545
40
0
40
0
40
0
40
0
41
1
41
1
41
1
41
1
10
72.251858126708143
20
525.83577441286945
30
0
10
71.907880980087796
20
526.32359799744472
30
0
10
71.631179186967444
20
526.82531110199761
30
0
10
71.435912188293443
20
527.33314601944824
30
0
0
SPLINE
5
268
100
AcDbEntity
8
0
100
AcDbSpline
70
4
71
3
72
8
73
4
74
0
42
0.000000001
43
0.0000000001
44
0.0000000001
40
-1
40
-1
40
-1
40
-1
40
0
40
0
40
0
40
0
41
1
41
1
41
1
41
1
10
71.435912188293443
20
527.33314601944824
30
0
10
72.913711727232652
20
531.17655746082642
30
0
10
79.056129069008776
20
534.66935761227296
30
0
10
83.72480409024412
20
534.44418199115955
30
0
0
SPLINE
5
269
100
AcDbEntity
8
0
100
AcDbSpline
70
4
71
3
72
8
73
4
74
0
42
0.000000001
43
0.0000000001
44
0.0000000001
40
0
40
0
40
0
40
0
40
1
40
1
40
1
40
1
41
1
41
1
41
1
41
1
10
151.91506539046631
20
510.28543277497192
30
0
10
151.34430773972775
20
509.8879098973083
30
0
10
150.55936276770504
20
510.02834882166258
30
0
10
150.16183989004145
20
510.59910647240116
30
0
0
SPLINE
5
270
100
AcDbEntity
8
0
100
AcDbSpline
70
4
71
3
72
8
73
4
74
0
42
0.000000001
43
0.0000000001
44
0.0000000001
40
-1
40
-1
40
-1
40
-1
40
0
40
0
40
0
40
0
41
1
41
1
41
1
41
1
10
117.83582551241577
20
536.2357397529114
30
0
10
115.38560370129275
20
535.08729337000364
30
0
10
114.24197526523318
20
532.03301090712159
30
0
10
116.20300642050293
20
529.5924249896949
30
0
0
SPLINE
5
271
100
AcDbEntity
8
0
100
AcDbSpline
70
4
71
3
72
8
73
4
74
0
42
0.000000001
43
0.0000000001
44
0.0000000001
40
0
40
0
40
0
40
0
40
1
40
1
40
1
40
1
41
1
41
1
41
1
41
1
10
152.22873908789552
20
512.03865827539653
30
0
10
152.62626196555908
20
511.46790062465817
30
0
10
152.48582304120481
20
510.68295565263548
30
0
10
151.91506539046631
20
510.28543277497192
30
0
0
SPLINE
5
272
100
AcDbEntity
8
0
100
AcDbSpline
70
4
71
3
72
8
73
4
74
0
42
0.000000001
43
0.0000000001
44
0.0000000001
40
-1
40
-1
40
-1
40
-1
40
-3.0428118360019444e-06
40
-3.0428118360019444e-06
40
-3.0428118360019444e-06
40
-3.0428118360019444e-06
41
1
41
1
41
1
41
1
10
110.81172389742918
20
545.56387652860235
30
0
10
109.80312783016998
20
539.56301520071077
30
0
10
113.0477809041227
20
536.57343685267415
30
0
10
117.83582406758832
20
536.23574283546509
30
0
0
SPLINE
5
273
100
AcDbEntity
8
0
100
AcDbSpline
70
4
71
3
72
8
73
4
74
0
42
0.000000001
43
0.0000000001
44
0.0000000001
40
0
40
0
40
0
40
0
40
1
40
1
40
1
40
1
41
1
41
1
41
1
41
1
10
142.97870376637451
20
507.4198109676172
30
0
10
142.68345660250486
20
509.44892731913569
30
0
10
142.49834601307614
20
512.37384368287599
30
0
10
142.27536805192869
20
516.51140345814088
30
0
0
SPLINE
5
274
100
AcDbEntity
8
0
100
AcDbSpline
70
4
71
3
72
8
73
4
74
0
42
0.000000001
43
0.0000000001
44
0.0000000001
40
0
40
0
40
0
40
0
40
1
40
1
40
1
40
1
41
1
41
1
41
1
41
1
10
144.51795325897342
20
506.52375737924558
30
0
10
143.84546930943236
20
506.34612728623898
30
0
10
143.15633385938108
20
506.74732701807613
30
0
10
142.97870376637451
20
507.4198109676172
30
0
0
SPLINE
5
275
100
AcDbEntity
8
0
100
AcDbSpline
70
4
71
3
72
8
73
4
74
0
42
0.000000001
43
0.0000000001
44
0.0000000001
40
-1
40
-1
40
-1
40
-1
40
0
40
0
40
0
40
0
41
1
41
1
41
1
41
1
10
102.44007635916994
20
553.72209747402712
30
0
10
106.80830590546265
20
551.24351739680662
30
0
10
105.08508691610963
20
547.28206625764892
30
0
10
101.54275489004881
20
548.7898300449682
30
0
0
SPLINE
5
276
100
AcDbEntity
8
0
100
AcDbSpline
70
4
71
3
72
8
73
4
74
0
42
0.000000001
43
0.0000000001
44
0.0000000001
40
-1
40
-1
40
-1
40
-1
40
0
40
0
40
0
40
0
41
1
41
1
41
1
41
1
10
101.54275489004881
20
548.7898300449682
30
0
10
99.02761758455074
20
544.02635980636103
30
0
10
107.14780210749026
20
540.66288349136471
30
0
10
110.81172389742918
20
545.56387652860235
30
0
0
SPLINE
5
277
100
AcDbEntity
8
0
100
AcDbSpline
70
4
71
3
72
8
73
4
74
0
42
0.000000001
43
0.0000000001
44
0.0000000001
40
0
40
0
40
0
40
0
40
1
40
1
40
1
40
1
41
1
41
1
41
1
41
1
10
142.27536805192869
20
516.51140345814088
30
0
10
143.86774174793209
20
512.41082353806996
30
0
10
144.5895462586291
20
510.36966231943109
30
0
10
145.41400684734501
20
508.06300687184444
30
0
0
SPLINE
5
278
100
AcDbEntity
8
0
100
AcDbSpline
70
4
71
3
72
8
73
4
74
0
42
0.000000001
43
0.0000000001
44
0.0000000001
40
0
40
0
40
0
40
0
40
1
40
1
40
1
40
1
41
1
41
1
41
1
41
1
10
145.41400684734501
20
508.06300687184444
30
0
10
145.59163694035158
20
507.39052292230338
30
0
10
145.19047947120606
20
506.70134520956054
30
0
10
144.51795325897342
20
506.52375737924558
30
0
0
SPLINE
5
279
100
AcDbEntity
8
0
100
AcDbSpline
70
4
71
3
72
8
73
4
74
0
42
0.000000001
43
0.0000000001
44
0.0000000001
40
-1
40
-1
40
-1
40
-1
40
0
40
0
40
0
40
0
41
1
41
1
41
1
41
1
10
159.60636811853757
20
524.30253066389037
30
0
10
160.2813033041943
20
524.13445193919688
30
0
10
160.69222345511108
20
523.45106421520995
30
0
10
160.5241447304175
20
522.7761290295532
30
0
0
SPLINE
5
280
100
AcDbEntity
8
0
100
AcDbSpline
70
4
71
3
72
8
73
4
74
0
42
0.000000001
43
0.0000000001
44
0.0000000001
40
-1
40
-1
40
-1
40
-1
40
0
40
0
40
0
40
0
41
1
41
1
41
1
41
1
10
150.50568914930909
20
524.87683838072735
30
0
10
154.6460382622229
20
524.71256329828236
30
0
10
157.57327907400392
20
524.56899693474611
30
0
10
159.60636811853757
20
524.30253066389037
30
0
0
SPLINE
5
281
100
AcDbEntity
8
0
100
AcDbSpline
70
4
71
3
72
8
73
4
74
0
42
0.000000001
43
0.0000000001
44
0.0000000001
40
0
40
0
40
0
40
0
40
1
40
1
40
1
40
1
41
1
41
1
41
1
41
1
10
141.58783858416012
20
504.20759282603751
30
0
10
144.02842450158693
20
502.24656167076773
30
0
10
147.08270696446897
20
503.39019010682739
30
0
10
148.2311533473767
20
505.84041191795041
30
0
0
SPLINE
5
282
100
AcDbEntity
8
0
100
AcDbSpline
70
4
71
3
72
8
73
4
74
0
42
0.000000001
43
0.0000000001
44
0.0000000001
40
-1
40
-1
40
-1
40
-1
40
0
40
0
40
0
40
0
41
1
41
1
41
1
41
1
10
118.1330167601013
20
532.54865800794801
30
0
10
118.30105322210326
20
533.22359319360476
30
0
10
118.98448320878174
20
533.63451334452157
30
0
10
119.65941839443846
20
533.46643461982785
30
0
0
SPLINE
5
283
100
AcDbEntity
8
0
100
AcDbSpline
70
4
71
3
72
8
73
4
74
0
42
0.000000001
43
0.0000000001
44
0.0000000001
40
-1
40
-1
40
-1
40
-1
40
0
40
0
40
0
40
0
41
1
41
1
41
1
41
1
10
119.65941839443846
20
533.46643461982785
30
0
10
121.97752703146237
20
532.67476987983275
30
0
10
124.02870450802243
20
531.98199983829954
30
0
10
128.15147234120974
20
530.44794865677375
30
0
0
SPLINE
5
284
100
AcDbEntity
8
0
100
AcDbSpline
70
4
71
3
72
8
73
4
74
0
42
0.000000001
43
0.0000000001
44
0.0000000001
40
0
40
0
40
0
40
0
40
1
40
1
40
1
40
1
41
1
41
1
41
1
41
1
10
165.7175110684924
20
490.44466276470462
30
0
10
168.03608459512449
20
485.1151682968237
30
0
10
159.88842932261232
20
480.601386040487
30
0
10
153.81363228747682
20
483.51028484409176
30
0
0
SPLINE
5
285
100
AcDbEntity
8
0
100
AcDbSpline
70
4
71
3
72
8
73
4
74
0
42
0.000000001
43
0.0000000001
44
0.0000000001
40
-1
40
-1
40
-1
40
-1
40
0
40
0
40
0
40
0
41
1
41
1
41
1
41
1
10
164.54408743481935
20
502.11761819854246
30
0
10
157.70179991931272
20
504.91430955581535
30
0
10
156.52634767644042
20
500.29364495229487
30
0
10
150.35350119667601
20
507.18208332708372
30
0
0
SPLINE
5
286
100
AcDbEntity
8
0
100
AcDbSpline
70
4
71
3
72
8
73
4
74
0
42
0.000000001
43
0.0000000001
44
0.0000000001
40
-1
40
-1
40
-1
40
-1
40
0
40
0
40
0
40
0
41
1
41
1
41
1
41
1
10
159.47962230627803
20
516.30820443668586
30
0
10
166.36810294375857
20
510.13535795692133
30
0
10
161.74739607754643
20
508.95994797674069
30
0
10
164.54408743481935
20
502.11761819854246
30
0
0
SPLINE
5
287
100
AcDbEntity
8
0
100
AcDbSpline
70
4
71
3
72
8
73
4
74
0
42
0.000000001
43
0.0000000001
44
0.0000000001
40
3.0428118382874706e-06
40
3.0428118382874706e-06
40
3.0428118382874706e-06
40
3.0428118382874706e-06
40
1
40
1
40
1
40
1
41
1
41
1
41
1
41
1
10
148.23115642993051
20
505.84041047312297
30
0
10
148.5688504471396
20
501.05236730965743
30
0
10
151.5584287951761
20
497.80771423570462
30
0
10
157.55929012306765
20
498.81631030296387
30
0
0
SPLINE
5
288
100
AcDbEntity
8
0
100
AcDbSpline
70
4
71
3
72
8
73
4
74
0
42
0.000000001
43
0.0000000001
44
0.0000000001
40
0
40
0
40
0
40
0
40
1
40
1
40
1
40
1
41
1
41
1
41
1
41
1
10
159.60636811853757
20
531.02225637361084
30
0
10
157.57327907400392
20
530.7557901027551
30
0
10
154.6460382622229
20
530.61222373921873
30
0
10
150.50568914930909
20
530.44794865677375
30
0
0
SPLINE
5
289
100
AcDbEntity
8
0
100
AcDbSpline
70
4
71
3
72
8
73
4
74
0
42
0.000000001
43
0.0000000001
44
0.0000000001
40
0
40
0
40
0
40
0
40
1
40
1
40
1
40
1
41
1
41
1
41
1
41
1
10
157.55929012306765
20
498.81631030296387
30
0
10
152.6582970858301
20
495.1523885130249
30
0
10
156.02177340082645
20
487.03220399008546
30
0
10
160.78524363943359
20
489.54734129558346
30
0
0
SPLINE
5
290
100
AcDbEntity
8
0
100
AcDbSpline
70
4
71
3
72
8
73
4
74
0
42
0.000000001
43
0.0000000001
44
0.0000000001
40
0
40
0
40
0
40
0
40
1
40
1
40
1
40
1
41
1
41
1
41
1
41
1
10
158.99774309608031
20
533.46643461982785
30
0
10
159.67267828173706
20
533.63451334452157
30
0
10
160.35610826841551
20
533.22359319360476
30
0
10
160.5241447304175
20
532.54865800794801
30
0
0
SPLINE
5
291
100
AcDbEntity
8
0
100
AcDbSpline
70
4
71
3
72
8
73
4
74
0
42
0.000000001
43
0.0000000001
44
0.0000000001
40
-1
40
-1
40
-1
40
-1
40
0
40
0
40
0
40
0
41
1
41
1
41
1
41
1
10
154.80642517703615
20
511.85528045632566
30
0
10
157.48959894453611
20
510.25686319541626
30
0
10
160.59971042308834
20
513.20730622491328
30
0
10
159.47962230627803
20
516.30820443668586
30
0
0
SPLINE
5
292
100
AcDbEntity
8
0
100
AcDbSpline
70
4
71
3
72
8
73
4
74
0
42
0.000000001
43
0.0000000001
44
0.0000000001
40
0
40
0
40
0
40
0
40
1
40
1
40
1
40
1
41
1
41
1
41
1
41
1
10
150.50568914930909
20
530.44794865677375
30
0
10
154.62845698249629
20
531.98199983829954
30
0
10
156.67963445905636
20
532.67476987983275
30
0
10
158.99774309608031
20
533.46643461982785
30
0
0
SPLINE
5
293
100
AcDbEntity
8
0
100
AcDbSpline
70
4
71
3
72
8
73
4
74
0
42
0.000000001
43
0.0000000001
44
0.0000000001
40
0
40
0
40
0
40
0
40
1
40
1
40
1
40
1
41
1
41
1
41
1
41
1
10
153.81363228747682
20
483.51028484409176
30
0
10
145.00050867223757
20
488.36314067553957
30
0
10
142.1037392611365
20
499.62826113495112
30
0
10
141.58783858416012
20
504.20759282603751
30
0
0
SPLINE
5
294
100
AcDbEntity
8
0
100
AcDbSpline
70
4
71
3
72
8
73
4
74
0
42
0.000000001
43
0.0000000001
44
0.0000000001
40
-1
40
-1
40
-1
40
-1
40
0
40
0
40
0
40
0
41
1
41
1
41
1
41
1
10
128.15147234120974
20
530.44794865677375
30
0
10
124.01112322829587
20
530.61222373921873
30
0
10
121.0838824165149
20
530.7557901027551
30
0
10
119.05079337198117
20
531.02225637361084
30
0
0
SPLINE
5
295
100
AcDbEntity
8
0
100
AcDbSpline
70
4
71
3
72
8
73
4
74
0
42
0.000000001
43
0.0000000001
44
0.0000000001
40
0
40
0
40
0
40
0
40
1
40
1
40
1
40
1
41
1
41
1
41
1
41
1
10
160.78524363943359
20
489.54734129558346
30
0
10
159.27747985211425
20
493.08967332164428
30
0
10
163.23893099127196
20
494.81289231099737
30
0
10
165.7175110684924
20
490.44466276470462
30
0
0
SPLINE
5
296
100
AcDbEntity
8
0
100
AcDbSpline
70
4
71
3
72
8
73
4
74
0
42
0.000000001
43
0.0000000001
44
0.0000000001
40
0
40
0
40
0
40
0
40
1
40
1
40
1
40
1
41
1
41
1
41
1
41
1
10
160.5241447304175
20
532.54865800794801
30
0
10
160.69222345511108
20
531.87372282229137
30
0
10
160.2813033041943
20
531.19033509830444
30
0
10
159.60636811853757
20
531.02225637361084
30
0
0
SPLINE
5
297
100
AcDbEntity
8
0
100
AcDbSpline
70
4
71
3
72
8
73
4
74
0
42
0.000000001
43
0.0000000001
44
0.0000000001
40
-1
40
-1
40
-1
40
-1
40
0
40
0
40
0
40
0
41
1
41
1
41
1
41
1
10
119.05079337198117
20
531.02225637361084
30
0
10
118.37585818632445
20
531.19033509830444
30
0
10
117.96493803540771
20
531.87372282229137
30
0
10
118.1330167601013
20
532.54865800794801
30
0
0
SPLINE
5
298
100
AcDbEntity
8
0
100
AcDbSpline
70
4
71
3
72
8
73
4
74
0
42
0.000000001
43
0.0000000001
44
0.0000000001
40
-1
40
-1
40
-1
40
-1
40
0
40
0
40
0
40
0
41
1
41
1
41
1
41
1
10
150.35350119667601
20
507.18208332708372
30
0
10
153.45435714575683
20
506.06199521027349
30
0
10
156.40484243794558
20
509.17210668882575
30
0
10
154.80642517703615
20
511.85528045632566
30
0
0
SPLINE
5
299
100
AcDbEntity
8
0
100
AcDbSpline
70
4
71
3
72
8
73
4
74
0
42
0.000000001
43
0.0000000001
44
0.0000000001
40
-1
40
-1
40
-1
40
-1
40
0
40
0
40
0
40
0
41
1
41
1
41
1
41
1
10
117.87191785108519
20
489.54734129558346
30
0
10
122.63538808969233
20
487.03220399008546
30
0
10
125.99886440468872
20
495.1523885130249
30
0
10
121.09787136745115
20
498.81631030296387
30
0
0
SPLINE
5
300
100
AcDbEntity
8
0
100
AcDbSpline
70
4
71
3
72
8
73
4
74
0
42
0.000000001
43
0.0000000001
44
0.0000000001
40
-1
40
-1
40
-1
40
-1
40
0
40
0
40
0
40
0
41
1
41
1
41
1
41
1
10
137.06932290635862
20
504.20759282603751
30
0
10
136.55342222938236
20
499.62826113495112
30
0
10
133.65665281828123
20
488.36314067553957
30
0
10
124.84352920304198
20
483.51028484409176
30
0
0
SPLINE
5
301
100
AcDbEntity
8
0
100
AcDbSpline
70
4
71
3
72
8
73
4
74
0
42
0.000000001
43
0.0000000001
44
0.0000000001
40
-1
40
-1
40
-1
40
-1
40
0
40
0
40
0
40
0
41
1
41
1
41
1
41
1
10
124.84352920304198
20
483.51028484409176
30
0
10
118.76873216790649
20
480.601386040487
30
0
10
110.62107689539431
20
485.1151682968237
30
0
10
112.93965042202632
20
490.44466276470462
30
0
0
SPLINE
5
302
100
AcDbEntity
8
0
100
AcDbSpline
70
4
71
3
72
8
73
4
74
0
42
0.000000001
43
0.0000000001
44
0.0000000001
40
0
40
0
40
0
40
0
40
1
40
1
40
1
40
1
41
1
41
1
41
1
41
1
10
207.22124930222537
20
527.33318828213999
30
0
10
205.74340750059449
20
523.48973457807017
30
0
10
199.60103242151007
20
519.99693442662351
30
0
10
194.93235740027461
20
520.22215231042856
30
0
0
SPLINE
5
303
100
AcDbEntity
8
0
100
AcDbSpline
70
4
71
3
72
8
73
4
74
0
42
0.000000001
43
0.0000000001
44
0.0000000001
40
-1
40
-1
40
-1
40
-1
40
0
40
0
40
0
40
0
41
1
41
1
41
1
41
1
10
130.42600814314204
20
505.84041191795041
30
0
10
131.57445452604981
20
503.39019010682739
30
0
10
134.62873698893188
20
502.24656167076773
30
0
10
137.06932290635862
20
504.20759282603751
30
0
0
SPLINE
5
304
100
AcDbEntity
8
0
100
AcDbSpline
70
4
71
3
72
8
73
4
74
0
42
0.000000001
43
0.0000000001
44
0.0000000001
40
-1
40
-1
40
-1
40
-1
40
0
40
0
40
0
40
0
41
1
41
1
41
1
41
1
10
112.93965042202632
20
490.44466276470462
30
0
10
115.4182304992468
20
494.81289231099737
30
0
10
119.37968163840453
20
493.08967332164428
30
0
10
117.87191785108519
20
489.54734129558346
30
0
0
SPLINE
5
305
100
AcDbEntity
8
0
100
AcDbSpline
70
4
71
3
72
8
73
4
74
0
42
0.000000001
43
0.0000000001
44
0.0000000001
40
-1
40
-1
40
-1
40
-1
40
-3.0428118353504495e-06
40
-3.0428118353504495e-06
40
-3.0428118353504495e-06
40
-3.0428118353504495e-06
41
1
41
1
41
1
41
1
10
121.09787136745115
20
498.81631030296387
30
0
10
127.0987326953427
20
497.80771423570462
30
0
10
130.08831104337924
20
501.05236730965743
30
0
10
130.42600506058827
20
505.84041047312297
30
0
0
SPLINE
5
306
100
AcDbEntity
8
0
100
AcDbSpline
70
4
71
3
72
8
73
4
74
0
42
0.000000001
43
0.0000000001
44
0.0000000001
40
0
40
0
40
0
40
0
40
1
40
1
40
1
40
1
41
1
41
1
41
1
41
1
10
119.05079337198117
20
524.30253066389037
30
0
10
121.0838824165149
20
524.56899693474611
30
0
10
124.01112322829587
20
524.71256329828236
30
0
10
128.15147234120974
20
524.87683838072735
30
0
0
SPLINE
5
307
100
AcDbEntity
8
0
100
AcDbSpline
70
4
71
3
72
8
73
4
74
0
42
0.000000001
43
0.0000000001
44
0.0000000001
40
-1
40
-1
40
-1
40
-1
40
0
40
0
40
0
40
0
41
1
41
1
41
1
41
1
10
151.91506539046631
20
545.03935426252929
30
0
10
152.48582304120481
20
544.64183138486578
30
0
10
152.62626196555908
20
543.8568864128431
30
0
10
152.22873908789552
20
543.28612876210445
30
0
0
SPLINE
5
308
100
AcDbEntity
8
0
100
AcDbSpline
70
4
71
3
72
8
73
4
74
0
42
0.000000001
43
0.0000000001
44
0.0000000001
40
-1
40
-1
40
-1
40
-1
40
0
40
0
40
0
40
0
41
1
41
1
41
1
41
1
10
160.82133597810304
20
518.43059454867671
30
0
10
163.27155778922605
20
519.57904093158447
30
0
10
164.41518622528562
20
522.63332339446652
30
0
10
162.45415507001587
20
525.07390931189332
30
0
0
SPLINE
5
309
100
AcDbEntity
8
0
100
AcDbSpline
70
4
71
3
72
8
73
4
74
0
42
0.000000001
43
0.0000000001
44
0.0000000001
40
-1
40
-1
40
-1
40
-1
40
0
40
0
40
0
40
0
41
1
41
1
41
1
41
1
10
146.382540951897
20
536.42693616993768
30
0
10
148.01126056271968
20
540.23700234760372
30
0
10
149.18844557594974
20
542.92093684355348
30
0
10
150.16183989004145
20
544.72568056509999
30
0
0
SPLINE
5
310
100
AcDbEntity
8
0
100
AcDbSpline
70
4
71
3
72
8
73
4
74
0
42
0.000000001
43
0.0000000001
44
0.0000000001
40
0
40
0
40
0
40
0
40
0.99999795275309478
40
0.99999795275309478
40
0.99999795275309478
40
0.99999795275309478
41
1
41
1
41
1
41
1
10
176.50248508806391
20
527.33318828213999
30
0
10
183.48684547415971
20
529.80424054138211
30
0
10
188.05974881110211
20
534.265984214534
30
0
10
194.93235745307061
20
534.44422315920542
30
0
0
SPLINE
5
311
100
AcDbEntity
8
0
100
AcDbSpline
70
4
71
3
72
8
73
4
74
0
42
0.000000001
43
0.0000000001
44
0.0000000001
40
-1
40
-1
40
-1
40
-1
40
0
40
0
40
0
40
0
41
1
41
1
41
1
41
1
10
160.78524363943359
20
565.11899300600464
30
0
10
156.02177340082645
20
567.63413031150264
30
0
10
152.6582970858301
20
559.51394578856321
30
0
10
157.55929012306765
20
555.85002399862424
30
0
0
SPLINE
5
312
100
AcDbEntity
8
0
100
AcDbSpline
70
4
71
3
72
8
73
4
74
0
42
0.000000001
43
0.0000000001
44
0.0000000001
40
3.0096524486431166e-06
40
3.0096524486431166e-06
40
3.0096524486431166e-06
40
3.0096524486431166e-06
40
1
40
1
40
1
40
1
41
1
41
1
41
1
41
1
10
194.93239955358229
20
534.44422628685129
30
0
10
199.60106939455059
20
534.66937885073241
30
0
10
205.7434542109491
20
531.1765881561854
30
0
10
207.22124930222537
20
527.33318828213999
30
0
0
SPLINE
5
313
100
AcDbEntity
8
0
100
AcDbSpline
70
4
71
3
72
8
73
4
74
0
42
0.000000001
43
0.0000000001
44
0.0000000001
40
-1
40
-1
40
-1
40
-1
40
0
40
0
40
0
40
0
41
1
41
1
41
1
41
1
10
152.22873908789552
20
543.28612876210445
30
0
10
150.66307541301509
20
541.4022270190967
30
0
10
149.28488903829589
20
539.7325125973731
30
0
10
146.382540951897
20
536.42693616993768
30
0
0
SPLINE
5
314
100
AcDbEntity
8
0
100
AcDbSpline
70
4
71
3
72
8
73
4
74
0
42
0.000000001
43
0.0000000001
44
0.0000000001
40
0
40
0
40
0
40
0
40
1
40
1
40
1
40
1
41
1
41
1
41
1
41
1
10
118.1330167601013
20
522.7761290295532
30
0
10
117.96493803540771
20
523.45106421520995
30
0
10
118.37585818632445
20
524.13445193919688
30
0
10
119.05079337198117
20
524.30253066389037
30
0
0
SPLINE
5
315
100
AcDbEntity
8
0
100
AcDbSpline
70
4
71
3
72
8
73
4
74
0
42
0.000000001
43
0.0000000001
44
0.0000000001
40
-1
40
-1
40
-1
40
-1
40
0
40
0
40
0
40
0
41
1
41
1
41
1
41
1
10
141.58783858416012
20
550.4587414755506
30
0
10
142.1037392611365
20
555.03807316663699
30
0
10
145.00050867223757
20
566.30319362604848
30
0
10
153.81363228747682
20
571.15604945749635
30
0
0
SPLINE
5
316
100
AcDbEntity
8
0
100
AcDbSpline
70
4
71
3
72
8
73
4
74
0
42
0.000000001
43
0.0000000001
44
0.0000000001
40
-1
40
-1
40
-1
40
-1
40
0
40
0
40
0
40
0
41
1
41
1
41
1
41
1
10
153.81363228747682
20
571.15604945749635
30
0
10
159.88842932261232
20
574.06494826110111
30
0
10
168.03608459512449
20
569.55116600476435
30
0
10
165.7175110684924
20
564.2216715368836
30
0
0
SPLINE
5
317
100
AcDbEntity
8
0
100
AcDbSpline
70
4
71
3
72
8
73
4
74
0
42
0.000000001
43
0.0000000001
44
0.0000000001
40
0
40
0
40
0
40
0
40
1
40
1
40
1
40
1
41
1
41
1
41
1
41
1
10
114.1130740556995
20
502.11761819854246
30
0
10
116.9097654129724
20
508.95994797674069
30
0
10
112.28905854676022
20
510.13535795692133
30
0
10
119.1775391842407
20
516.30820443668586
30
0
0
SPLINE
5
318
100
AcDbEntity
8
0
100
AcDbSpline
70
4
71
3
72
8
73
4
74
0
42
0.000000001
43
0.0000000001
44
0.0000000001
40
-1
40
-1
40
-1
40
-1
40
0
40
0
40
0
40
0
41
1
41
1
41
1
41
1
10
148.2311533473767
20
548.8259223836377
30
0
10
147.08270696446897
20
551.27614419476072
30
0
10
144.02842450158693
20
552.41977263082026
30
0
10
141.58783858416012
20
550.4587414755506
30
0
0
SPLINE
5
319
100
AcDbEntity
8
0
100
AcDbSpline
70
4
71
3
72
8
73
4
74
0
42
0.000000001
43
0.0000000001
44
0.0000000001
40
-1
40
-1
40
-1
40
-1
40
0
40
0
40
0
40
0
41
1
41
1
41
1
41
1
10
176.21708513134891
20
500.94423682756099
30
0
10
171.84885558505616
20
503.42281690478148
30
0
10
173.57207457440921
20
507.38426804393919
30
0
10
177.11440660046998
20
505.87650425661985
30
0
0
SPLINE
5
320
100
AcDbEntity
8
0
100
AcDbSpline
70
4
71
3
72
8
73
4
74
0
42
0.000000001
43
0.0000000001
44
0.0000000001
40
-1
40
-1
40
-1
40
-1
40
-3.0428118399988375e-06
40
-3.0428118399988375e-06
40
-3.0428118399988375e-06
40
-3.0428118399988375e-06
41
1
41
1
41
1
41
1
10
167.84543759308957
20
509.10245777298587
30
0
10
168.8540336603487
20
515.10331910087734
30
0
10
165.6093805863961
20
518.09289744891385
30
0
10
160.82133742293053
20
518.43059146612291
30
0
0
SPLINE
5
321
100
AcDbEntity
8
0
100
AcDbSpline
70
4
71
3
72
8
73
4
74
0
42
0.000000001
43
0.0000000001
44
0.0000000001
40
-1
40
-1
40
-1
40
-1
40
-3.0428118387697919e-06
40
-3.0428118387697919e-06
40
-3.0428118387697919e-06
40
-3.0428118387697919e-06
41
1
41
1
41
1
41
1
10
157.55929012306765
20
555.85002399862424
30
0
10
151.5584287951761
20
556.85862006588354
30
0
10
148.5688504471396
20
553.61396699193074
30
0
10
148.23115642993048
20
548.82592382846519
30
0
0
SPLINE
5
322
100
AcDbEntity
8
0
100
AcDbSpline
70
4
71
3
72
8
73
4
74
0
42
0.000000001
43
0.0000000001
44
0.0000000001
40
0
40
0
40
0
40
0
40
1
40
1
40
1
40
1
41
1
41
1
41
1
41
1
10
119.65941839443846
20
521.85835241767336
30
0
10
118.98448320878174
20
521.69027369297976
30
0
10
118.30105322210326
20
522.10119384389645
30
0
10
118.1330167601013
20
522.7761290295532
30
0
0
SPLINE
5
323
100
AcDbEntity
8
0
100
AcDbSpline
70
4
71
3
72
8
73
4
74
0
42
0.000000001
43
0.0000000001
44
0.0000000001
40
-1
40
-1
40
-1
40
-1
40
0
40
0
40
0
40
0
41
1
41
1
41
1
41
1
10
150.16183989004145
20
544.72568056509999
30
0
10
150.55936276770504
20
545.29643821583863
30
0
10
151.34430773972775
20
545.43687714019279
30
0
10
151.91506539046631
20
545.03935426252929
30
0
0
SPLINE
5
324
100
AcDbEntity
8
0
100
AcDbSpline
70
4
71
3
72
8
73
4
74
0
42
0.000000001
43
0.0000000001
44
0.0000000001
40
-1
40
-1
40
-1
40
-1
40
0
40
0
40
0
40
0
41
1
41
1
41
1
41
1
10
165.7175110684924
20
564.2216715368836
30
0
10
163.23893099127196
20
559.85344199059091
30
0
10
159.27747985211425
20
561.57666097994388
30
0
10
160.78524363943359
20
565.11899300600464
30
0
0
SPLINE
5
325
100
AcDbEntity
8
0
100
AcDbSpline
70
4
71
3
72
8
73
4
74
0
42
0.000000001
43
0.0000000001
44
0.0000000001
40
-1
40
-1
40
-1
40
-1
40
0
40
0
40
0
40
0
41
1
41
1
41
1
41
1
10
177.11440660046998
20
505.87650425661985
30
0
10
179.62954390596798
20
510.63997449522702
30
0
10
171.50935938302854
20
514.0034508102234
30
0
10
167.84543759308957
20
509.10245777298587
30
0
0
SPLINE
5
326
100
AcDbEntity
8
0
100
AcDbSpline
70
4
71
3
72
8
73
4
74
0
42
0.000000001
43
0.0000000001
44
0.0000000001
40
0
40
0
40
0
40
0
40
1
40
1
40
1
40
1
41
1
41
1
41
1
41
1
10
119.1775391842407
20
516.30820443668586
30
0
10
118.05745106743039
20
513.20730622491328
30
0
10
121.16756254598265
20
510.25686319541626
30
0
10
123.85073631348264
20
511.85528045632566
30
0
0
SPLINE
5
327
100
AcDbEntity
8
0
100
AcDbSpline
70
4
71
3
72
8
73
4
74
0
42
0.000000001
43
0.0000000001
44
0.0000000001
40
-1
40
-1
40
-1
40
-1
40
0
40
0
40
0
40
0
41
1
41
1
41
1
41
1
10
183.15146305196168
20
512.84811560857656
30
0
10
186.06036185556636
20
506.77331857344114
30
0
10
181.54657959922972
20
498.62566330092898
30
0
10
176.21708513134891
20
500.94423682756099
30
0
0
SPLINE
5
328
100
AcDbEntity
8
0
100
AcDbSpline
70
4
71
3
72
8
73
4
74
0
42
0.000000001
43
0.0000000001
44
0.0000000001
40
0
40
0
40
0
40
0
40
1
40
1
40
1
40
1
41
1
41
1
41
1
41
1
10
194.93235740027461
20
520.22215231042856
30
0
10
188.05972527216306
20
520.40037408111812
30
0
10
183.48685977289918
20
524.86213096403321
30
0
10
176.50248508806391
20
527.33318828213999
30
0
0
SPLINE
5
329
100
AcDbEntity
8
0
100
AcDbSpline
70
4
71
3
72
8
73
4
74
0
42
0.000000001
43
0.0000000001
44
0.0000000001
40
-1
40
-1
40
-1
40
-1
40
0
40
0
40
0
40
0
41
1
41
1
41
1
41
1
10
162.45415507001587
20
525.07390931189332
30
0
10
167.03348676110232
20
524.55800863491697
30
0
10
178.29860722051393
20
521.66123922381587
30
0
10
183.15146305196168
20
512.84811560857656
30
0
0
SPLINE
5
330
100
AcDbEntity
8
0
100
AcDbSpline
70
4
71
3
72
8
73
4
74
0
42
0.000000001
43
0.0000000001
44
0.0000000001
40
0
40
0
40
0
40
0
40
1
40
1
40
1
40
1
41
1
41
1
41
1
41
1
10
128.15147234120974
20
524.87683838072735
30
0
10
124.02870450802243
20
523.34278719920167
30
0
10
121.97752703146237
20
522.65001715766846
30
0
10
119.65941839443846
20
521.85835241767336
30
0
0
SPLINE
5
331
100
AcDbEntity
8
0
100
AcDbSpline
70
4
71
3
72
8
73
4
74
0
42
0.000000001
43
0.0000000001
44
0.0000000001
40
0
40
0
40
0
40
0
40
1
40
1
40
1
40
1
41
1
41
1
41
1
41
1
10
136.38179343859005
20
538.73481723558234
30
0
10
134.78941974258663
20
542.83539715565303
30
0
10
134.06761523188965
20
544.87655837429202
30
0
10
133.24315464317382
20
547.18321382187867
30
0
0
SPLINE
5
332
100
AcDbEntity
8
0
100
AcDbSpline
70
4
71
3
72
8
73
4
74
0
42
0.000000001
43
0.0000000001
44
0.0000000001
40
0
40
0
40
0
40
0
40
1
40
1
40
1
40
1
41
1
41
1
41
1
41
1
10
128.30366029384277
20
507.18208332708372
30
0
10
122.13081381407839
20
500.29364495229487
30
0
10
120.95536157120607
20
504.91430955581535
30
0
10
114.1130740556995
20
502.11761819854246
30
0
0
LINE
5
333
100
AcDbEntity
8
0
100
AcDbLine
10
194.93235745307061
20
534.44422315920542
30
0
11
194.9323996026053
21
534.44422527033043
31
0
0
SPLINE
5
334
100
AcDbEntity
8
0
100
AcDbSpline
70
4
71
3
72
8
73
4
74
0
42
0.000000001
43
0.0000000001
44
0.0000000001
40
0
40
0
40
0
40
0
40
1
40
1
40
1
40
1
41
1
41
1
41
1
41
1
10
133.24315464317382
20
547.18321382187867
30
0
10
133.0655245501672
20
547.85569777141973
30
0
10
133.46668201931277
20
548.54487548416262
30
0
10
134.13920823154538
20
548.72246331447752
30
0
0
SPLINE
5
335
100
AcDbEntity
8
0
100
AcDbSpline
70
4
71
3
72
8
73
4
74
0
42
0.000000001
43
0.0000000001
44
0.0000000001
40
0
40
0
40
0
40
0
40
1
40
1
40
1
40
1
41
1
41
1
41
1
41
1
10
123.85073631348264
20
511.85528045632566
30
0
10
122.25231905257326
20
509.17210668882575
30
0
10
125.20280434476199
20
506.06199521027349
30
0
10
128.30366029384277
20
507.18208332708372
30
0
0
SPLINE
5
336
100
AcDbEntity
8
0
100
AcDbSpline
70
4
71
3
72
8
73
4
74
0
42
0.000000001
43
0.0000000001
44
0.0000000001
40
0
40
0
40
0
40
0
40
1
40
1
40
1
40
1
41
1
41
1
41
1
41
1
10
135.67845772414421
20
547.82640972610591
30
0
10
135.97370488801391
20
545.7972933745873
30
0
10
136.15881547744263
20
542.87237701084712
30
0
10
136.38179343859005
20
538.73481723558234
30
0
0
SPLINE
5
337
100
AcDbEntity
8
0
100
AcDbSpline
70
4
71
3
72
8
73
4
74
0
42
0.000000001
43
0.0000000001
44
0.0000000001
40
0
40
0
40
0
40
0
40
1
40
1
40
1
40
1
41
1
41
1
41
1
41
1
10
139.32855961391357
20
595.22583570775998
30
0
10
143.17201331798339
20
593.74799390612918
30
0
10
146.66481346942987
20
587.60561882704462
30
0
10
146.439595585625
20
582.93694380580928
30
0
0
SPLINE
5
338
100
AcDbEntity
8
0
100
AcDbSpline
70
4
71
3
72
8
73
4
74
0
42
0.000000001
43
0.0000000001
44
0.0000000001
40
0
40
0
40
0
40
0
40
1
40
1
40
1
40
1
41
1
41
1
41
1
41
1
10
134.13920823154538
20
548.72246331447752
30
0
10
134.81169218108639
20
548.90009340748406
30
0
10
135.50082763113767
20
548.49889367564697
30
0
10
135.67845772414421
20
547.82640972610591
30
0
0
LINE
5
339
100
AcDbEntity
8
0
100
AcDbLine
10
132.21752473684791
20
582.93694385860545
30
0
11
132.21752262572301
21
582.93698600813991
31
0
0
SPLINE
5
340
100
AcDbEntity
8
0
100
AcDbSpline
70
4
71
3
72
8
73
4
74
0
42
0.000000001
43
0.0000000001
44
0.0000000001
40
0
40
0
40
0
40
0
40
1
40
1
40
1
40
1
41
1
41
1
41
1
41
1
10
146.439595585625
20
582.93694380580928
30
0
10
146.26137381493524
20
576.06431167769767
30
0
10
141.79961693202029
20
571.49144617843388
30
0
10
139.32855961391357
20
564.50707149359869
30
0
0
SPLINE
5
341
100
AcDbEntity
8
0
100
AcDbSpline
70
4
71
3
72
8
73
4
74
0
42
0.000000001
43
0.0000000001
44
0.0000000001
40
0
40
0
40
0
40
0
40
0.99999795275309999
40
0.99999795275309999
40
0.99999795275309999
40
0.99999795275309999
41
1
41
1
41
1
41
1
10
139.32855961391357
20
564.50707149359869
30
0
10
136.85750735467127
20
571.49143187969435
30
0
10
132.39576368151936
20
576.06433521663689
30
0
10
132.21752473684793
20
582.93694385860545
30
0
0
SPLINE
5
342
100
AcDbEntity
8
0
100
AcDbSpline
70
4
71
3
72
8
73
4
74
0
42
0.000000001
43
0.0000000001
44
0.0000000001
40
3.0096524487652198e-06
40
3.0096524487652198e-06
40
3.0096524487652198e-06
40
3.0096524487652198e-06
40
1
40
1
40
1
40
1
41
1
41
1
41
1
41
1
10
132.21752160920209
20
582.9369859591169
30
0
10
131.99236904532108
20
587.60565580008529
30
0
10
135.48515973986807
20
593.74804061648388
30
0
10
139.32855961391357
20
595.22583570775998
30
0
0
SPLINE
5
343
100
AcDbEntity
8
0
100
AcDbSpline
70
4
71
3
72
8
73
4
74
0
42
0.000000001
43
0.0000000001
44
0.0000000001
40
0
40
0
40
0
40
0
40
1
40
1
40
1
40
1
41
1
41
1
41
1
41
1
10
128.4953216004773
20
544.72568056509999
30
0
10
129.46871591456909
20
542.92093684355348
30
0
10
130.645900927799
20
540.23700234760372
30
0
10
132.2746205386218
20
536.42693616993768
30
0
0
SPLINE
5
344
100
AcDbEntity
8
0
100
AcDbSpline
70
4
71
3
72
8
73
4
74
0
42
0.000000001
43
0.0000000001
44
0.0000000001
40
0
40
0
40
0
40
0
40
1
40
1
40
1
40
1
41
1
41
1
41
1
41
1
10
132.2746205386218
20
536.42693616993768
30
0
10
129.37227245222286
20
539.7325125973731
30
0
10
127.99408607750365
20
541.4022270190967
30
0
10
126.42842240262333
20
543.28612876210445
30
0
0
SPLINE
5
345
100
AcDbEntity
8
0
100
AcDbSpline
70
4
71
3
72
8
73
4
74
0
42
0.000000001
43
0.0000000001
44
0.0000000001
40
0
40
0
40
0
40
0
40
1
40
1
40
1
40
1
41
1
41
1
41
1
41
1
10
126.42842240262333
20
543.28612876210445
30
0
10
126.03089952495971
20
543.8568864128431
30
0
10
126.17133844931399
20
544.64183138486578
30
0
10
126.74209610005249
20
545.03935426252929
30
0
0
SPLINE
5
346
100
AcDbEntity
8
0
100
AcDbSpline
70
4
71
3
72
8
73
4
74
0
42
0.000000001
43
0.0000000001
44
0.0000000001
40
0
40
0
40
0
40
0
40
1
40
1
40
1
40
1
41
1
41
1
41
1
41
1
10
126.74209610005249
20
545.03935426252929
30
0
10
127.31285375079099
20
545.43687714019279
30
0
10
128.09779872281371
20
545.29643821583863
30
0
10
128.4953216004773
20
544.72568056509999
30
0
0
SPLINE
5
347
100
AcDbEntity
8
0
100
AcDbSpline
70
4
71
3
72
8
73
4
74
0
42
0.000000001
43
0.0000000001
44
0.0000000001
40
-1
40
-1
40
-1
40
-1
40
0
40
0
40
0
40
0
41
1
41
1
41
1
41
1
10
114.1130740556995
20
552.54871610304565
30
0
10
120.95536157120607
20
549.7520247457727
30
0
10
122.13081381407839
20
554.37268934929318
30
0
10
128.30366029384277
20
547.48425097450433
30
0
0
SPLINE
5
348
100
AcDbEntity
8
0
100
AcDbSpline
70
4
71
3
72
8
73
4
74
0
42
0.000000001
43
0.0000000001
44
0.0000000001
40
-1
40
-1
40
-1
40
-1
40
0
40
0
40
0
40
0
41
1
41
1
41
1
41
1
10
123.85073631348264
20
542.81105384526245
30
0
10
121.16756254598265
20
544.40947110617185
30
0
10
118.05745106743039
20
541.45902807667483
30
0
10
119.1775391842407
20
538.35812986490237
30
0
0
SPLINE
5
349
100
AcDbEntity
8
0
100
AcDbSpline
70
4
71
3
72
8
73
4
74
0
42
0.000000001
43
0.0000000001
44
0.0000000001
40
-1
40
-1
40
-1
40
-1
40
0
40
0
40
0
40
0
41
1
41
1
41
1
41
1
10
128.30366029384277
20
547.48425097450433
30
0
10
125.20280434476199
20
548.60433909131473
30
0
10
122.25231905257326
20
545.49422761276242
30
0
10
123.85073631348264
20
542.81105384526245
30
0
0
SPLINE
5
350
100
AcDbEntity
8
0
100
AcDbSpline
70
4
71
3
72
8
73
4
74
0
42
0.000000001
43
0.0000000001
44
0.0000000001
40
0
40
0
40
0
40
0
40
1
40
1
40
1
40
1
41
1
41
1
41
1
41
1
10
112.93965042202632
20
564.2216715368836
30
0
10
110.62107689539431
20
569.55116600476435
30
0
10
118.76873216790649
20
574.06494826110111
30
0
10
124.84352920304198
20
571.15604945749635
30
0
0
SPLINE
5
351
100
AcDbEntity
8
0
100
AcDbSpline
70
4
71
3
72
8
73
4
74
0
42
0.000000001
43
0.0000000001
44
0.0000000001
40
0
40
0
40
0
40
0
40
1
40
1
40
1
40
1
41
1
41
1
41
1
41
1
10
124.84352920304198
20
571.15604945749635
30
0
10
133.65665281828123
20
566.30319362604848
30
0
10
136.55342222938236
20
555.03807316663699
30
0
10
137.06932290635862
20
550.4587414755506
30
0
0
SPLINE
5
352
100
AcDbEntity
8
0
100
AcDbSpline
70
4
71
3
72
8
73
4
74
0
42
0.000000001
43
0.0000000001
44
0.0000000001
40
0
40
0
40
0
40
0
40
1
40
1
40
1
40
1
41
1
41
1
41
1
41
1
10
137.06932290635862
20
550.4587414755506
30
0
10
134.62873698893188
20
552.41977263082026
30
0
10
131.57445452604981
20
551.27614419476072
30
0
10
130.42600814314204
20
548.8259223836377
30
0
0
SPLINE
5
353
100
AcDbEntity
8
0
100
AcDbSpline
70
4
71
3
72
8
73
4
74
0
42
0.000000001
43
0.0000000001
44
0.0000000001
40
3.0428118382582437e-06
40
3.0428118382582437e-06
40
3.0428118382582437e-06
40
3.0428118382582437e-06
40
1
40
1
40
1
40
1
41
1
41
1
41
1
41
1
10
130.42600506058827
20
548.82592382846519
30
0
10
130.08831104337924
20
553.61396699193074
30
0
10
127.09873269534268
20
556.85862006588354
30
0
10
121.09787136745115
20
555.85002399862424
30
0
0
SPLINE
5
354
100
AcDbEntity
8
0
100
AcDbSpline
70
4
71
3
72
8
73
4
74
0
42
0.000000001
43
0.0000000001
44
0.0000000001
40
-1
40
-1
40
-1
40
-1
40
0
40
0
40
0
40
0
41
1
41
1
41
1
41
1
10
119.1775391842407
20
538.35812986490237
30
0
10
112.28905854676022
20
544.53097634466667
30
0
10
116.9097654129724
20
545.70638632484747
30
0
10
114.1130740556995
20
552.54871610304565
30
0
0
SPLINE
5
355
100
AcDbEntity
8
0
100
AcDbSpline
70
4
71
3
72
8
73
4
74
0
42
0.000000001
43
0.0000000001
44
0.0000000001
40
-1
40
-1
40
-1
40
-1
40
0
40
0
40
0
40
0
41
1
41
1
41
1
41
1
10
139.32855961391357
20
459.44049859382807
30
0
10
135.48514817253542
20
460.91829813276729
30
0
10
131.99234802108884
20
467.06071547454343
30
0
10
132.21752364220214
20
471.72939049577877
30
0
0
SPLINE
5
356
100
AcDbEntity
8
0
100
AcDbSpline
70
4
71
3
72
8
73
4
74
0
42
0.000000001
43
0.0000000001
44
0.0000000001
40
0
40
0
40
0
40
0
40
1
40
1
40
1
40
1
41
1
41
1
41
1
41
1
10
117.87191785108519
20
565.11899300600464
30
0
10
119.37968163840453
20
561.57666097994388
30
0
10
115.4182304992468
20
559.85344199059091
30
0
10
112.93965042202632
20
564.2216715368836
30
0
0
SPLINE
5
357
100
AcDbEntity
8
0
100
AcDbSpline
70
4
71
3
72
8
73
4
74
0
42
0.000000001
43
0.0000000001
44
0.0000000001
40
0
40
0
40
0
40
0
40
1
40
1
40
1
40
1
41
1
41
1
41
1
41
1
10
121.09787136745115
20
555.85002399862424
30
0
10
125.99886440468872
20
559.51394578856321
30
0
10
122.63538808969233
20
567.63413031150264
30
0
10
117.87191785108519
20
565.11899300600464
30
0
0
SPLINE
5
358
100
AcDbEntity
8
0
100
AcDbSpline
70
4
71
3
72
8
73
4
74
0
42
0.000000001
43
0.0000000001
44
0.0000000001
40
-1
40
-1
40
-1
40
-1
40
0
40
0
40
0
40
0
41
1
41
1
41
1
41
1
10
139.32855961391357
20
490.15930507068111
30
0
10
141.79961693202029
20
483.17488812315435
30
0
10
146.26137381493524
20
478.60202262389038
30
0
10
146.439595585625
20
471.72939049577877
30
0
0
SPLINE
5
359
100
AcDbEntity
8
0
100
AcDbSpline
70
4
71
3
72
8
73
4
74
0
42
0.000000001
43
0.0000000001
44
0.0000000001
40
-1
40
-1
40
-1
40
-1
40
0
40
0
40
0
40
0
41
1
41
1
41
1
41
1
10
145.41400684734501
20
547.26178016565666
30
0
10
144.5895462586291
20
544.95512471807012
30
0
10
143.86774174793209
20
542.91396349943113
30
0
10
142.27536805192869
20
538.81338357936033
30
0
0
SPLINE
5
360
100
AcDbEntity
8
0
100
AcDbSpline
70
4
71
3
72
8
73
4
74
0
42
0.000000001
43
0.0000000001
44
0.0000000001
40
-1
40
-1
40
-1
40
-1
40
0
40
0
40
0
40
0
41
1
41
1
41
1
41
1
10
146.439595585625
20
471.72939049577877
30
0
10
146.66481346942987
20
467.06071547454343
30
0
10
143.17201331798339
20
460.91834039545893
30
0
10
139.32855961391357
20
459.44049859382807
30
0
0
SPLINE
5
361
100
AcDbEntity
8
0
100
AcDbSpline
70
4
71
3
72
8
73
4
74
0
42
0.000000001
43
0.0000000001
44
0.0000000001
40
-1
40
-1
40
-1
40
-1
40
0
40
0
40
0
40
0
41
1
41
1
41
1
41
1
10
132.21752364220214
20
471.72939049577877
30
0
10
132.39574541289181
20
478.60202262389038
30
0
10
136.85750229580685
20
483.17493038584587
30
0
10
139.32855961391357
20
490.15930507068111
30
0
0
SPLINE
5
362
100
AcDbEntity
8
0
100
AcDbSpline
70
4
71
3
72
8
73
4
74
0
42
0.000000001
43
0.0000000001
44
0.0000000001
40
-1
40
-1
40
-1
40
-1
40
0
40
0
40
0
40
0
41
1
41
1
41
1
41
1
10
142.97870376637451
20
547.90497606988401
30
0
10
143.15633385938108
20
548.57746001942496
30
0
10
143.84546930943236
20
548.97865975126228
30
0
10
144.51795325897342
20
548.80102965825563
30
0
0
SPLINE
5
363
100
AcDbEntity
8
0
100
AcDbSpline
70
4
71
3
72
8
73
4
74
0
42
0.000000001
43
0.0000000001
44
0.0000000001
40
-1
40
-1
40
-1
40
-1
40
0
40
0
40
0
40
0
41
1
41
1
41
1
41
1
10
144.51795325897342
20
548.80102965825563
30
0
10
145.19047947120606
20
548.62344182794061
30
0
10
145.59163694035158
20
547.93426411519772
30
0
10
145.41400684734501
20
547.26178016565666
30
0
0
SPLINE
5
364
100
AcDbEntity
8
0
100
AcDbSpline
70
4
71
3
72
8
73
4
74
0
42
0.000000001
43
0.0000000001
44
0.0000000001
40
0
40
0
40
0
40
0
40
1
40
1
40
1
40
1
41
1
41
1
41
1
41
1
10
139.32855961391346
20
-34.774164292240002
30
0
10
143.17201331798339
20
-36.252006093870861
30
0
10
146.66481346942987
20
-42.394381172955313
30
0
10
146.439595585625
20
-47.063056194190658
30
0
0
SPLINE
5
365
100
AcDbEntity
8
0
100
AcDbSpline
70
4
71
3
72
8
73
4
74
0
42
0.000000001
43
0.0000000001
44
0.0000000001
40
0
40
0
40
0
40
0
40
1
40
1
40
1
40
1
41
1
41
1
41
1
41
1
10
128.30366029384271
20
-122.81791667291628
30
0
10
122.13081381407832
20
-129.7063550477051
30
0
10
120.95536157120598
20
-125.08569044418462
30
0
10
114.11307405569943
20
-127.88238180145751
30
0
0
SPLINE
5
366
100
AcDbEntity
8
0
100
AcDbSpline
70
4
71
3
72
8
73
4
74
0
42
0.000000001
43
0.0000000001
44
0.0000000001
40
0
40
0
40
0
40
0
40
1
40
1
40
1
40
1
41
1
41
1
41
1
41
1
10
142.97870376637439
20
-122.58018903238283
30
0
10
142.6834566025048
20
-120.55107268086431
30
0
10
142.49834601307612
20
-117.626156317124
30
0
10
142.27536805192875
20
-113.48859654185915
30
0
0
SPLINE
5
367
100
AcDbEntity
8
0
100
AcDbSpline
70
4
71
3
72
8
73
4
74
0
42
0.000000001
43
0.0000000001
44
0.0000000001
40
0
40
0
40
0
40
0
40
1
40
1
40
1
40
1
41
1
41
1
41
1
41
1
10
142.27536805192875
20
-113.48859654185915
30
0
10
143.86774174793203
20
-117.58917646192998
30
0
10
144.58954625862907
20
-119.63033768056886
30
0
10
145.41400684734498
20
-121.93699312815551
30
0
0
SPLINE
5
368
100
AcDbEntity
8
0
100
AcDbSpline
70
4
71
3
72
8
73
4
74
0
42
0.000000001
43
0.0000000001
44
0.0000000001
40
-1
40
-1
40
-1
40
-1
40
0
40
0
40
0
40
0
41
1
41
1
41
1
41
1
10
144.51795325897336
20
-81.198970341744428
30
0
10
145.19047947120606
20
-81.376558172059362
30
0
10
145.59163694035163
20
-82.065735884802322
30
0
10
145.41400684734498
20
-82.738219834343312
30
0
0
SPLINE
5
369
100
AcDbEntity
8
0
100
AcDbSpline
70
4
71
3
72
8
73
4
74
0
42
0.000000001
43
0.0000000001
44
0.0000000001
40
-1
40
-1
40
-1
40
-1
40
0
40
0
40
0
40
0
41
1
41
1
41
1
41
1
10
142.97870376637439
20
-82.095023930116014
30
0
10
143.15633385938105
20
-81.422539980574953
30
0
10
143.84546930943236
20
-81.0213402487378
30
0
10
144.51795325897336
20
-81.198970341744428
30
0
0
SPLINE
5
370
100
AcDbEntity
8
0
100
AcDbSpline
70
4
71
3
72
8
73
4
74
0
42
0.000000001
43
0.0000000001
44
0.0000000001
40
0
40
0
40
0
40
0
40
1
40
1
40
1
40
1
41
1
41
1
41
1
41
1
10
119.65941839443836
20
-108.14164758232661
30
0
10
118.98448320878167
20
-108.30972630702028
30
0
10
118.30105322210315
20
-107.89880615610355
30
0
10
118.13301676010127
20
-107.22387097044681
30
0
0
SPLINE
5
371
100
AcDbEntity
8
0
100
AcDbSpline
70
4
71
3
72
8
73
4
74
0
42
0.000000001
43
0.0000000001
44
0.0000000001
40
-1
40
-1
40
-1
40
-1
40
0
40
0
40
0
40
0
41
1
41
1
41
1
41
1
10
139.32855961391346
20
-139.84069492931889
30
0
10
141.79961693202031
20
-146.82511187684568
30
0
10
146.26137381493515
20
-151.39797737610962
30
0
10
146.439595585625
20
-158.27060950422123
30
0
0
SPLINE
5
372
100
AcDbEntity
8
0
100
AcDbSpline
70
4
71
3
72
8
73
4
74
0
42
0.000000001
43
0.0000000001
44
0.0000000001
40
3.0428118299594104e-06
40
3.0428118299594104e-06
40
3.0428118299594104e-06
40
3.0428118299594104e-06
40
1
40
1
40
1
40
1
41
1
41
1
41
1
41
1
10
117.83582406758846
20
-111.56940853387702
30
0
10
113.0477809041227
20
-111.90710255108606
30
0
10
109.80312783016984
20
-114.89668089912269
30
0
10
110.8117238974291
20
-120.89754222701416
30
0
0
SPLINE
5
373
100
AcDbEntity
8
0
100
AcDbSpline
70
4
71
3
72
8
73
4
74
0
42
0.000000001
43
0.0000000001
44
0.0000000001
40
-1
40
-1
40
-1
40
-1
40
0
40
0
40
0
40
0
41
1
41
1
41
1
41
1
10
142.27536805192875
20
-91.186616420639695
30
0
10
142.49834601307612
20
-87.049056645374776
30
0
10
142.6834566025048
20
-84.124140281634538
30
0
10
142.97870376637439
20
-82.095023930116014
30
0
0
SPLINE
5
374
100
AcDbEntity
8
0
100
AcDbSpline
70
4
71
3
72
8
73
4
74
0
42
0.000000001
43
0.0000000001
44
0.0000000001
40
-1
40
-1
40
-1
40
-1
40
0
40
0
40
0
40
0
41
1
41
1
41
1
41
1
10
145.41400684734498
20
-82.738219834343312
30
0
10
144.58954625862907
20
-85.04487528192989
30
0
10
143.86774174793203
20
-87.086036500568838
30
0
10
142.27536805192875
20
-91.186616420639695
30
0
0
SPLINE
5
375
100
AcDbEntity
8
0
100
AcDbSpline
70
4
71
3
72
8
73
4
74
0
42
0.000000001
43
0.0000000001
44
0.0000000001
40
0
40
0
40
0
40
0
40
1
40
1
40
1
40
1
41
1
41
1
41
1
41
1
10
128.15147234120971
20
-105.12316161927257
30
0
10
124.02870450802233
20
-106.65721280079836
30
0
10
121.97752703146236
20
-107.34998284233157
30
0
10
119.65941839443836
20
-108.14164758232661
30
0
0
SPLINE
5
376
100
AcDbEntity
8
0
100
AcDbSpline
70
4
71
3
72
8
73
4
74
0
42
0.000000001
43
0.0000000001
44
0.0000000001
40
0
40
0
40
0
40
0
40
1
40
1
40
1
40
1
41
1
41
1
41
1
41
1
10
110.8117238974291
20
-120.89754222701416
30
0
10
107.14780210749026
20
-115.9965491897766
30
0
10
99.027617584550782
20
-119.36002550477298
30
0
10
101.54275489004881
20
-124.12349574338016
30
0
0
SPLINE
5
377
100
AcDbEntity
8
0
100
AcDbSpline
70
4
71
3
72
8
73
4
74
0
42
0.000000001
43
0.0000000001
44
0.0000000001
40
0
40
0
40
0
40
0
40
1
40
1
40
1
40
1
41
1
41
1
41
1
41
1
10
119.05079337198124
20
-105.69746933610958
30
0
10
121.0838824165149
20
-105.43100306525389
30
0
10
124.0111232282959
20
-105.28743670171761
30
0
10
128.15147234120971
20
-105.12316161927257
30
0
0
SPLINE
5
378
100
AcDbEntity
8
0
100
AcDbSpline
70
4
71
3
72
8
73
4
74
0
42
0.000000001
43
0.0000000001
44
0.0000000001
40
0
40
0
40
0
40
0
40
0.99999795275309478
40
0.99999795275309478
40
0.99999795275309478
40
0.99999795275309478
41
1
41
1
41
1
41
1
10
176.50248508806391
20
-102.66681171786007
30
0
10
183.48684547415971
20
-100.19575945861789
30
0
10
188.05974881110217
20
-95.734015785465971
30
0
10
194.93235745307064
20
-95.555776840794493
30
0
0
SPLINE
5
379
100
AcDbEntity
8
0
100
AcDbSpline
70
4
71
3
72
8
73
4
74
0
42
0.000000001
43
0.0000000001
44
0.0000000001
40
-1
40
-1
40
-1
40
-1
40
0
40
0
40
0
40
0
41
1
41
1
41
1
41
1
10
124.8435292030419
20
-146.48971515590824
30
0
10
118.76873216790649
20
-149.39861395951294
30
0
10
110.62107689539431
20
-144.8848317031763
30
0
10
112.93965042202615
20
-139.55533723529541
30
0
0
LINE
5
380
100
AcDbEntity
8
0
100
AcDbLine
10
194.93235745307064
20
-95.555776840794493
30
0
11
194.93239960260527
21
-95.555774729669594
31
0
0
SPLINE
5
381
100
AcDbEntity
8
0
100
AcDbSpline
70
4
71
3
72
8
73
4
74
0
42
0.000000001
43
0.0000000001
44
0.0000000001
40
0
40
0
40
0
40
0
40
1
40
1
40
1
40
1
41
1
41
1
41
1
41
1
10
194.93235740027455
20
-109.7778476895715
30
0
10
188.05972527216306
20
-109.59962591888186
30
0
10
183.48685977289915
20
-105.13786903596679
30
0
10
176.50248508806391
20
-102.66681171786007
30
0
0
SPLINE
5
382
100
AcDbEntity
8
0
100
AcDbSpline
70
4
71
3
72
8
73
4
74
0
42
0.000000001
43
0.0000000001
44
0.0000000001
40
-1
40
-1
40
-1
40
-1
40
0
40
0
40
0
40
0
41
1
41
1
41
1
41
1
10
137.06932290635854
20
-125.79240717396243
30
0
10
136.55342222938231
20
-130.37173886504885
30
0
10
133.65665281828115
20
-141.63685932446046
30
0
10
124.8435292030419
20
-146.48971515590824
30
0
0
SPLINE
5
383
100
AcDbEntity
8
0
100
AcDbSpline
70
4
71
3
72
8
73
4
74
0
42
0.000000001
43
0.0000000001
44
0.0000000001
40
0
40
0
40
0
40
0
40
1
40
1
40
1
40
1
41
1
41
1
41
1
41
1
10
146.439595585625
20
-47.063056194190658
30
0
10
146.26137381493515
20
-53.935688322302298
30
0
10
141.79961693202031
20
-58.508553821566167
30
0
10
139.32855961391346
20
-65.492928506401356
30
0
0
SPLINE
5
384
100
AcDbEntity
8
0
100
AcDbSpline
70
4
71
3
72
8
73
4
74
0
42
0.000000001
43
0.0000000001
44
0.0000000001
40
-1
40
-1
40
-1
40
-1
40
0
40
0
40
0
40
0
41
1
41
1
41
1
41
1
10
132.21752364220222
20
-158.27060950422123
30
0
10
132.39574541289187
20
-151.39797737610962
30
0
10
136.85750229580677
20
-146.8250696141541
30
0
10
139.32855961391346
20
-139.84069492931889
30
0
0
SPLINE
5
385
100
AcDbEntity
8
0
100
AcDbSpline
70
4
71
3
72
8
73
4
74
0
42
0.000000001
43
0.0000000001
44
0.0000000001
40
-1
40
-1
40
-1
40
-1
40
0
40
0
40
0
40
0
41
1
41
1
41
1
41
1
10
146.439595585625
20
-158.27060950422123
30
0
10
146.66481346942987
20
-162.93928452545657
30
0
10
143.17201331798339
20
-169.08165960454107
30
0
10
139.32855961391346
20
-170.55950140617193
30
0
0
SPLINE
5
386
100
AcDbEntity
8
0
100
AcDbSpline
70
4
71
3
72
8
73
4
74
0
42
0.000000001
43
0.0000000001
44
0.0000000001
40
-1
40
-1
40
-1
40
-1
40
0
40
0
40
0
40
0
41
1
41
1
41
1
41
1
10
139.32855961391346
20
-170.55950140617193
30
0
10
135.48514817253539
20
-169.08170186723268
30
0
10
131.99234802108876
20
-162.93928452545657
30
0
10
132.21752364220222
20
-158.27060950422123
30
0
0
SPLINE
5
387
100
AcDbEntity
8
0
100
AcDbSpline
70
4
71
3
72
8
73
4
74
0
42
0.000000001
43
0.0000000001
44
0.0000000001
40
0
40
0
40
0
40
0
40
1
40
1
40
1
40
1
41
1
41
1
41
1
41
1
10
101.54275489004881
20
-124.12349574338016
30
0
10
105.08508691610956
20
-122.61573195606083
30
0
10
106.80830590546265
20
-126.57718309521854
30
0
10
102.44007635916994
20
-129.05576317243901
30
0
0
SPLINE
5
388
100
AcDbEntity
8
0
100
AcDbSpline
70
4
71
3
72
8
73
4
74
0
42
0.000000001
43
0.0000000001
44
0.0000000001
40
0
40
0
40
0
40
0
40
1
40
1
40
1
40
1
41
1
41
1
41
1
41
1
10
116.20300642050282
20
-104.92609068810673
30
0
10
114.24197526523315
20
-107.36667660553351
30
0
10
115.38560370129275
20
-110.42095906841553
30
0
10
117.83582551241587
20
-111.56940545132329
30
0
0
SPLINE
5
389
100
AcDbEntity
8
0
100
AcDbSpline
70
4
71
3
72
8
73
4
74
0
42
0.000000001
43
0.0000000001
44
0.0000000001
40
0
40
0
40
0
40
0
40
1
40
1
40
1
40
1
41
1
41
1
41
1
41
1
10
123.85073631348256
20
-118.14471954367437
30
0
10
122.25231905257317
20
-120.82789331117428
30
0
10
125.20280434476192
20
-123.93800478972653
30
0
10
128.30366029384271
20
-122.81791667291628
30
0
0
SPLINE
5
390
100
AcDbEntity
8
0
100
AcDbSpline
70
4
71
3
72
8
73
4
74
0
42
0.000000001
43
0.0000000001
44
0.0000000001
40
0
40
0
40
0
40
0
40
1
40
1
40
1
40
1
41
1
41
1
41
1
41
1
10
145.41400684734498
20
-121.93699312815551
30
0
10
145.59163694035163
20
-122.60947707769657
30
0
10
145.19047947120606
20
-123.29865479043946
30
0
10
144.51795325897336
20
-123.47624262075439
30
0
0
SPLINE
5
391
100
AcDbEntity
8
0
100
AcDbSpline
70
4
71
3
72
8
73
4
74
0
42
0.000000001
43
0.0000000001
44
0.0000000001
40
0
40
0
40
0
40
0
40
1
40
1
40
1
40
1
41
1
41
1
41
1
41
1
10
144.51795325897336
20
-123.47624262075439
30
0
10
143.84546930943236
20
-123.653872713761
30
0
10
143.15633385938105
20
-123.25267298192384
30
0
10
142.97870376637439
20
-122.58018903238283
30
0
0
SPLINE
5
392
100
AcDbEntity
8
0
100
AcDbSpline
70
4
71
3
72
8
73
4
74
0
42
0.000000001
43
0.0000000001
44
0.0000000001
40
0
40
0
40
0
40
0
40
1
40
1
40
1
40
1
41
1
41
1
41
1
41
1
10
119.17753918424076
20
-113.69179556331417
30
0
10
118.05745106743032
20
-116.79269377508672
30
0
10
121.16756254598272
20
-119.74313680458373
30
0
10
123.85073631348256
20
-118.14471954367437
30
0
0
SPLINE
5
393
100
AcDbEntity
8
0
100
AcDbSpline
70
4
71
3
72
8
73
4
74
0
42
0.000000001
43
0.0000000001
44
0.0000000001
40
0
40
0
40
0
40
0
40
1
40
1
40
1
40
1
41
1
41
1
41
1
41
1
10
164.54408743481935
20
-77.451283896954408
30
0
10
161.7473960775464
20
-84.293613675152585
30
0
10
166.36810294375857
20
-85.469023655333245
30
0
10
159.47962230627795
20
-91.641870135097676
30
0
0
SPLINE
5
394
100
AcDbEntity
8
0
100
AcDbSpline
70
4
71
3
72
8
73
4
74
0
42
0.000000001
43
0.0000000001
44
0.0000000001
40
0
40
0
40
0
40
0
40
1
40
1
40
1
40
1
41
1
41
1
41
1
41
1
10
207.22124930222535
20
-102.66681171786007
30
0
10
205.74340750059446
20
-106.51026542192987
30
0
10
199.60103242151001
20
-110.00306557337652
30
0
10
194.93235740027455
20
-109.7778476895715
30
0
0
SPLINE
5
395
100
AcDbEntity
8
0
100
AcDbSpline
70
4
71
3
72
8
73
4
74
0
42
0.000000001
43
0.0000000001
44
0.0000000001
40
3.0096524539107319e-06
40
3.0096524539107319e-06
40
3.0096524539107319e-06
40
3.0096524539107319e-06
40
1
40
1
40
1
40
1
41
1
41
1
41
1
41
1
10
194.93239955358229
20
-95.55577371314871
30
0
10
199.60106939455073
20
-95.330621149267614
30
0
10
205.74345421094915
20
-98.823411843814597
30
0
10
207.22124930222535
20
-102.66681171786007
30
0
0
SPLINE
5
396
100
AcDbEntity
8
0
100
AcDbSpline
70
4
71
3
72
8
73
4
74
0
42
0.000000001
43
0.0000000001
44
0.0000000001
40
0
40
0
40
0
40
0
40
1
40
1
40
1
40
1
41
1
41
1
41
1
41
1
10
154.8064251770362
20
-87.188946154737579
30
0
10
156.40484243794555
20
-84.505772387237556
30
0
10
153.45435714575677
20
-81.395660908685272
30
0
10
150.35350119667598
20
-82.515749025495609
30
0
0
SPLINE
5
397
100
AcDbEntity
8
0
100
AcDbSpline
70
4
71
3
72
8
73
4
74
0
42
0.000000001
43
0.0000000001
44
0.0000000001
40
0
40
0
40
0
40
0
40
1
40
1
40
1
40
1
41
1
41
1
41
1
41
1
10
159.47962230627795
20
-91.641870135097676
30
0
10
160.59971042308831
20
-88.540971923325145
30
0
10
157.48959894453611
20
-85.590528893828122
30
0
10
154.8064251770362
20
-87.188946154737579
30
0
0
SPLINE
5
398
100
AcDbEntity
8
0
100
AcDbSpline
70
4
71
3
72
8
73
4
74
0
42
0.000000001
43
0.0000000001
44
0.0000000001
40
0
40
0
40
0
40
0
40
1
40
1
40
1
40
1
41
1
41
1
41
1
41
1
10
114.11307405569943
20
-127.88238180145751
30
0
10
116.90976541297239
20
-121.04005202325929
30
0
10
112.28905854676015
20
-119.86464204307867
30
0
10
119.17753918424076
20
-113.69179556331417
30
0
0
SPLINE
5
399
100
AcDbEntity
8
0
100
AcDbSpline
70
4
71
3
72
8
73
4
74
0
42
0.000000001
43
0.0000000001
44
0.0000000001
40
0
40
0
40
0
40
0
40
1
40
1
40
1
40
1
41
1
41
1
41
1
41
1
10
150.35350119667598
20
-82.515749025495609
30
0
10
156.52634767644037
20
-75.627310650706789
30
0
10
157.70179991931272
20
-80.247975254227271
30
0
10
164.54408743481935
20
-77.451283896954408
30
0
0
SPLINE
5
400
100
AcDbEntity
8
0
100
AcDbSpline
70
4
71
3
72
8
73
4
74
0
42
0.000000001
43
0.0000000001
44
0.0000000001
40
0
40
0
40
0
40
0
40
1
40
1
40
1
40
1
41
1
41
1
41
1
41
1
10
95.505698438557118
20
-117.15188439142338
30
0
10
100.35855427000477
20
-108.33876077618413
30
0
10
111.62367472941632
20
-105.44199136508304
30
0
10
116.20300642050282
20
-104.92609068810673
30
0
0
SPLINE
5
401
100
AcDbEntity
8
0
100
AcDbSpline
70
4
71
3
72
8
73
4
74
0
42
0.000000001
43
0.0000000001
44
0.0000000001
40
-1
40
-1
40
-1
40
-1
40
0
40
0
40
0
40
0
41
1
41
1
41
1
41
1
10
83.724804090244049
20
-95.555818008840419
30
0
10
90.597436218355654
20
-95.734039779529951
30
0
10
95.170343980311145
20
-100.1957966624451
30
0
10
102.15471866514633
20
-102.66685398055181
30
0
0
SPLINE
5
402
100
AcDbEntity
8
0
100
AcDbSpline
70
4
71
3
72
8
73
4
74
0
42
0.000000001
43
0.0000000001
44
0.0000000001
40
0
40
0
40
0
40
0
40
1
40
1
40
1
40
1
41
1
41
1
41
1
41
1
10
134.13920823154541
20
-81.277536685522449
30
0
10
134.81169218108633
20
-81.099906592515907
30
0
10
135.50082763113764
20
-81.501106324353003
30
0
10
135.67845772414421
20
-82.173590273894035
30
0
0
SPLINE
5
403
100
AcDbEntity
8
0
100
AcDbSpline
70
4
71
3
72
8
73
4
74
0
42
0.000000001
43
0.0000000001
44
0.0000000001
40
-1
40
-1
40
-1
40
-1
40
0
40
0
40
0
40
0
41
1
41
1
41
1
41
1
10
102.15471866514633
20
-102.66685398055181
30
0
10
95.170301717619594
20
-105.13791129865851
30
0
10
90.597436218355654
20
-109.59966818157355
30
0
10
83.724804090244049
20
-109.77788995226319
30
0
0
SPLINE
5
404
100
AcDbEntity
8
0
100
AcDbSpline
70
4
71
3
72
8
73
4
74
0
42
0.000000001
43
0.0000000001
44
0.0000000001
40
0
40
0
40
0
40
0
40
1
40
1
40
1
40
1
41
1
41
1
41
1
41
1
10
133.24315464317385
20
-82.816786178121305
30
0
10
133.06552455016714
20
-82.144302228580301
30
0
10
133.4666820193128
20
-81.455124515837412
30
0
10
134.13920823154541
20
-81.277536685522449
30
0
0
SPLINE
5
405
100
AcDbEntity
8
0
100
AcDbSpline
70
4
71
3
72
8
73
4
74
0
42
0.000000001
43
0.0000000001
44
0.0000000001
40
-0.13212285065360352
40
-0.13212285065360352
40
-0.13212285065360352
40
-0.13212285065360352
40
0
40
0
40
0
40
0
41
1
41
1
41
1
41
1
10
72.251803551822462
20
-104.16414818887301
30
0
10
71.907851712625188
20
-103.6763489346356
30
0
10
71.631168859939933
20
-103.17466204028872
30
0
10
71.435912188293358
20
-102.66685398055181
30
0
0
SPLINE
5
406
100
AcDbEntity
8
0
100
AcDbSpline
70
4
71
3
72
8
73
4
74
0
42
0.000000001
43
0.0000000001
44
0.0000000001
40
-1
40
-1
40
-1
40
-1
40
-0.13212285065366058
40
-0.13212285065366058
40
-0.13212285065366058
40
-0.13212285065366058
41
1
41
1
41
1
41
1
10
83.724804090244049
20
-109.77788995226319
30
0
10
79.672967721589885
20
-109.97335140724164
30
0
10
74.511124632456074
20
-107.3683617229176
30
0
10
72.251803551823031
20
-104.16414818887358
30
0
0
SPLINE
5
407
100
AcDbEntity
8
0
100
AcDbSpline
70
4
71
3
72
8
73
4
74
0
42
0.000000001
43
0.0000000001
44
0.0000000001
40
-1
40
-1
40
-1
40
-1
40
0
40
0
40
0
40
0
41
1
41
1
41
1
41
1
10
71.435912188293358
20
-102.66685398055181
30
0
10
72.913711727232737
20
-98.823442539173556
30
0
10
79.056129069008705
20
-95.330642387727096
30
0
10
83.724804090244049
20
-95.555818008840419
30
0
0
SPLINE
5
408
100
AcDbEntity
8
0
100
AcDbSpline
70
4
71
3
72
8
73
4
74
0
42
0.000000001
43
0.0000000001
44
0.0000000001
40
0
40
0
40
0
40
0
40
1
40
1
40
1
40
1
41
1
41
1
41
1
41
1
10
136.38179343859008
20
-91.265182764417744
30
0
10
134.78941974258652
20
-87.164602844346959
30
0
10
134.06761523188962
20
-85.123441625707983
30
0
10
133.24315464317385
20
-82.816786178121305
30
0
0
SPLINE
5
409
100
AcDbEntity
8
0
100
AcDbSpline
70
4
71
3
72
8
73
4
74
0
42
0.000000001
43
0.0000000001
44
0.0000000001
40
-1
40
-1
40
-1
40
-1
40
-3.0428118435878428e-06
40
-3.0428118435878428e-06
40
-3.0428118435878428e-06
40
-3.0428118435878428e-06
41
1
41
1
41
1
41
1
10
157.55929012306757
20
-74.149976001375819
30
0
10
151.55842879517598
20
-73.141379934116515
30
0
10
148.56885044713977
20
-76.386033008069205
30
0
10
148.23115642993059
20
-81.174076171534779
30
0
0
SPLINE
5
410
100
AcDbEntity
8
0
100
AcDbSpline
70
4
71
3
72
8
73
4
74
0
42
0.000000001
43
0.0000000001
44
0.0000000001
40
0
40
0
40
0
40
0
40
1
40
1
40
1
40
1
41
1
41
1
41
1
41
1
10
159.60636811853755
20
-98.977743626389127
30
0
10
157.57327907400395
20
-99.244209897244886
30
0
10
154.64603826222282
20
-99.387776260781209
30
0
10
150.50568914930915
20
-99.552051343226282
30
0
0
SPLINE
5
411
100
AcDbEntity
8
0
100
AcDbSpline
70
4
71
3
72
8
73
4
74
0
42
0.000000001
43
0.0000000001
44
0.0000000001
40
0
40
0
40
0
40
0
40
1
40
1
40
1
40
1
41
1
41
1
41
1
41
1
10
151.91506539046628
20
-119.71456722502808
30
0
10
151.34430773972781
20
-120.1120901026917
30
0
10
150.55936276770501
20
-119.97165117833745
30
0
10
150.16183989004148
20
-119.40089352759881
30
0
0
SPLINE
5
412
100
AcDbEntity
8
0
100
AcDbSpline
70
4
71
3
72
8
73
4
74
0
42
0.000000001
43
0.0000000001
44
0.0000000001
40
0
40
0
40
0
40
0
40
1
40
1
40
1
40
1
41
1
41
1
41
1
41
1
10
135.67845772414421
20
-82.173590273894035
30
0
10
135.97370488801388
20
-84.202706625412674
30
0
10
136.15881547744272
20
-87.127622989152869
30
0
10
136.38179343859008
20
-91.265182764417744
30
0
0
SPLINE
5
413
100
AcDbEntity
8
0
100
AcDbSpline
70
4
71
3
72
8
73
4
74
0
42
0.000000001
43
0.0000000001
44
0.0000000001
40
0
40
0
40
0
40
0
40
1
40
1
40
1
40
1
41
1
41
1
41
1
41
1
10
150.50568914930915
20
-99.552051343226282
30
0
10
154.62845698249629
20
-98.018000161700485
30
0
10
156.67963445905633
20
-97.325230120167276
30
0
10
158.99774309608034
20
-96.533565380172135
30
0
0
SPLINE
5
414
100
AcDbEntity
8
0
100
AcDbSpline
70
4
71
3
72
8
73
4
74
0
42
0.000000001
43
0.0000000001
44
0.0000000001
40
-1
40
-1
40
-1
40
-1
40
0
40
0
40
0
40
0
41
1
41
1
41
1
41
1
10
112.93965042202615
20
-139.55533723529541
30
0
10
115.4182304992468
20
-135.18710768900266
30
0
10
119.37968163840452
20
-136.91032667835572
30
0
10
117.87191785108519
20
-140.45265870441654
30
0
0
SPLINE
5
415
100
AcDbEntity
8
0
100
AcDbSpline
70
4
71
3
72
8
73
4
74
0
42
0.000000001
43
0.0000000001
44
0.0000000001
40
0
40
0
40
0
40
0
40
1
40
1
40
1
40
1
41
1
41
1
41
1
41
1
10
160.5241447304175
20
-97.451341992051965
30
0
10
160.69222345511099
20
-98.126277177708687
30
0
10
160.2813033041943
20
-98.809664901695555
30
0
10
159.60636811853755
20
-98.977743626389127
30
0
0
LWPOLYLINE
5
416
100
AcDbEntity
8
0
100
AcDbPolyline
90
18
70
1
43
0.0
10
387.5
20
-315
10
500
20
-315
10
500
20
-205
10
497.5
20
-205
10
497.5
20
-125
10
500
20
-125
10
500
20
-15
10
315
20
-15
10
315
20
-12.5
10
235
20
-12.5
10
235
20
-15
10
50
20
-15
10
50
20
-125
10
52.5
20
-125
10
52.5
20
-205
10
50
20
-205
10
50
20
-315
10
162.5
20
-315
42
-0.99999999999999989
0
SPLINE
5
417
100
AcDbEntity
8
0
100
AcDbSpline
70
4
71
3
72
8
73
4
74
0
42
0.000000001
43
0.0000000001
44
0.0000000001
40
0
40
0
40
0
40
0
40
1
40
1
40
1
40
1
41
1
41
1
41
1
41
1
10
158.99774309608034
20
-96.533565380172135
30
0
10
159.67267828173703
20
-96.365486655478492
30
0
10
160.35610826841548
20
-96.776406806395272
30
0
10
160.5241447304175
20
-97.451341992051965
30
0
0
SPLINE
5
418
100
AcDbEntity
8
0
100
AcDbSpline
70
4
71
3
72
8
73
4
74
0
42
0.000000001
43
0.0000000001
44
0.0000000001
40
-1
40
-1
40
-1
40
-1
40
-3.0428118315221981e-06
40
-3.0428118315221981e-06
40
-3.0428118315221981e-06
40
-3.0428118315221981e-06
41
1
41
1
41
1
41
1
10
121.09787136745105
20
-131.18368969703613
30
0
10
127.0987326953427
20
-132.19228576429538
30
0
10
130.08831104337929
20
-128.94763269034257
30
0
10
130.42600506058832
20
-124.15958952687696
30
0
0
LINE
5
419
100
AcDbEntity
8
0
100
AcDbLine
10
132.21752473684779
20
-47.063056141394668
30
0
11
132.21752262572301
21
-47.063013991860032
31
0
0
SPLINE
5
420
100
AcDbEntity
8
0
100
AcDbSpline
70
4
71
3
72
8
73
4
74
0
42
0.000000001
43
0.0000000001
44
0.0000000001
40
0
40
0
40
0
40
0
40
1
40
1
40
1
40
1
41
1
41
1
41
1
41
1
10
118.13301676010127
20
-107.22387097044681
30
0
10
117.9649380354077
20
-106.54893578479005
30
0
10
118.37585818632434
20
-105.86554806080315
30
0
10
119.05079337198124
20
-105.69746933610958
30
0
0
SPLINE
5
421
100
AcDbEntity
8
0
100
AcDbSpline
70
4
71
3
72
8
73
4
74
0
42
0.000000001
43
0.0000000001
44
0.0000000001
40
0
40
0
40
0
40
0
40
1
40
1
40
1
40
1
41
1
41
1
41
1
41
1
10
102.44007635916994
20
-129.05576317243901
30
0
10
97.110581891289058
20
-131.37433669907102
30
0
10
92.596799634952376
20
-123.22668142655883
30
0
10
95.505698438557118
20
-117.15188439142338
30
0
0
SPLINE
5
422
100
AcDbEntity
8
0
100
AcDbSpline
70
4
71
3
72
8
73
4
74
0
42
0.000000001
43
0.0000000001
44
0.0000000001
40
-1
40
-1
40
-1
40
-1
40
0
40
0
40
0
40
0
41
1
41
1
41
1
41
1
10
153.81363228747682
20
-58.843950542503691
30
0
10
159.88842932261235
20
-55.935051738898949
30
0
10
168.03608459512441
20
-60.448833995235631
30
0
10
165.7175110684924
20
-65.778328463116438
30
0
0
SPLINE
5
423
100
AcDbEntity
8
0
100
AcDbSpline
70
4
71
3
72
8
73
4
74
0
42
0.000000001
43
0.0000000001
44
0.0000000001
40
-1
40
-1
40
-1
40
-1
40
0
40
0
40
0
40
0
41
1
41
1
41
1
41
1
10
148.23115334737679
20
-81.174077616362297
30
0
10
147.08270696446888
20
-78.723855805239253
30
0
10
144.02842450158693
20
-77.580227369179767
30
0
10
141.58783858416015
20
-79.541258524449461
30
0
0
SPLINE
5
424
100
AcDbEntity
8
0
100
AcDbSpline
70
4
71
3
72
8
73
4
74
0
42
0.000000001
43
0.0000000001
44
0.0000000001
40
-1
40
-1
40
-1
40
-1
40
0
40
0
40
0
40
0
41
1
41
1
41
1
41
1
10
141.58783858416015
20
-79.541258524449461
30
0
10
142.10373926113647
20
-74.961926833363037
30
0
10
145.00050867223757
20
-63.696806373951453
30
0
10
153.81363228747682
20
-58.843950542503691
30
0
0
SPLINE
5
425
100
AcDbEntity
8
0
100
AcDbSpline
70
4
71
3
72
8
73
4
74
0
42
0.000000001
43
0.0000000001
44
0.0000000001
40
0
40
0
40
0
40
0
40
1
40
1
40
1
40
1
41
1
41
1
41
1
41
1
10
152.22873908789552
20
-117.96134172460339
30
0
10
152.62626196555914
20
-118.53209937534182
30
0
10
152.48582304120481
20
-119.31704434736453
30
0
10
151.91506539046628
20
-119.71456722502808
30
0
0
SPLINE
5
426
100
AcDbEntity
8
0
100
AcDbSpline
70
4
71
3
72
8
73
4
74
0
42
0.000000001
43
0.0000000001
44
0.0000000001
40
-1
40
-1
40
-1
40
-1
40
0
40
0
40
0
40
0
41
1
41
1
41
1
41
1
10
160.78524363943365
20
-64.881006993995356
30
0
10
156.02177340082648
20
-62.365869688497355
30
0
10
152.65829708583013
20
-70.486054211436766
30
0
10
157.55929012306757
20
-74.149976001375819
30
0
0
SPLINE
5
427
100
AcDbEntity
8
0
100
AcDbSpline
70
4
71
3
72
8
73
4
74
0
42
0.000000001
43
0.0000000001
44
0.0000000001
40
-1
40
-1
40
-1
40
-1
40
0
40
0
40
0
40
0
41
1
41
1
41
1
41
1
10
165.7175110684924
20
-65.778328463116438
30
0
10
163.23893099127196
20
-70.146558009409148
30
0
10
159.27747985211425
20
-68.423339020056133
30
0
10
160.78524363943365
20
-64.881006993995356
30
0
0
SPLINE
5
428
100
AcDbEntity
8
0
100
AcDbSpline
70
4
71
3
72
8
73
4
74
0
42
0.000000001
43
0.0000000001
44
0.0000000001
40
0
40
0
40
0
40
0
40
1
40
1
40
1
40
1
41
1
41
1
41
1
41
1
10
146.382540951897
20
-111.10214913243652
30
0
10
149.28488903829594
20
-114.40772555987181
30
0
10
150.66307541301512
20
-116.07743998159552
30
0
10
152.22873908789552
20
-117.96134172460339
30
0
0
SPLINE
5
429
100
AcDbEntity
8
0
100
AcDbSpline
70
4
71
3
72
8
73
4
74
0
42
0.000000001
43
0.0000000001
44
0.0000000001
40
-1
40
-1
40
-1
40
-1
40
0
40
0
40
0
40
0
41
1
41
1
41
1
41
1
10
117.87191785108519
20
-140.45265870441654
30
0
10
122.6353880896923
20
-142.96779600991459
30
0
10
125.99886440468872
20
-134.8476114869751
30
0
10
121.09787136745105
20
-131.18368969703613
30
0
0
SPLINE
5
430
100
AcDbEntity
8
0
100
AcDbSpline
70
4
71
3
72
8
73
4
74
0
42
0.000000001
43
0.0000000001
44
0.0000000001
40
0
40
0
40
0
40
0
40
1
40
1
40
1
40
1
41
1
41
1
41
1
41
1
10
150.16183989004148
20
-119.40089352759881
30
0
10
149.1884455759498
20
-117.59614980605228
30
0
10
148.01126056271968
20
-114.91221531010254
30
0
10
146.382540951897
20
-111.10214913243652
30
0
0
SPLINE
5
431
100
AcDbEntity
8
0
100
AcDbSpline
70
4
71
3
72
8
73
4
74
0
42
0.000000001
43
0.0000000001
44
0.0000000001
40
0
40
0
40
0
40
0
40
0.99999795275309877
40
0.99999795275309877
40
0.99999795275309877
40
0.99999795275309877
41
1
41
1
41
1
41
1
10
139.32855961391346
20
-65.492928506401356
30
0
10
136.85750735467124
20
-58.508568120305569
30
0
10
132.3957636815195
20
-53.935664783363144
30
0
10
132.21752473684802
20
-47.063056141394668
30
0
0
SPLINE
5
432
100
AcDbEntity
8
0
100
AcDbSpline
70
4
71
3
72
8
73
4
74
0
42
0.000000001
43
0.0000000001
44
0.0000000001
40
-1
40
-1
40
-1
40
-1
40
0
40
0
40
0
40
0
41
1
41
1
41
1
41
1
10
130.42600814314204
20
-124.15958808204959
30
0
10
131.57445452604981
20
-126.6098098931726
30
0
10
134.62873698893196
20
-127.75343832923227
30
0
10
137.06932290635854
20
-125.79240717396243
30
0
0
SPLINE
5
433
100
AcDbEntity
8
0
100
AcDbSpline
70
4
71
3
72
8
73
4
74
0
42
0.000000001
43
0.0000000001
44
0.0000000001
40
3.0096524487652189e-06
40
3.0096524487652189e-06
40
3.0096524487652189e-06
40
3.0096524487652189e-06
40
1
40
1
40
1
40
1
41
1
41
1
41
1
41
1
10
132.21752160920227
20
-47.063014040883075
30
0
10
131.99236904532114
20
-42.394344199914755
30
0
10
135.4851597398681
20
-36.251959383516166
30
0
10
139.32855961391346
20
-34.774164292240002
30
0
0
SPLINE
5
434
100
AcDbEntity
8
0
100
AcDbSpline
70
4
71
3
72
8
73
4
74
0
42
0.000000001
43
0.0000000001
44
0.0000000001
40
0
40
0
40
0
40
0
40
1
40
1
40
1
40
1
41
1
41
1
41
1
41
1
10
176.21708513134882
20
-76.277902525972905
30
0
10
181.54657959922972
20
-73.959328999340812
30
0
10
186.06036185556636
20
-82.106984271853037
30
0
10
183.15146305196163
20
-88.18178130698854
30
0
0
SPLINE
5
435
100
AcDbEntity
8
0
100
AcDbSpline
70
4
71
3
72
8
73
4
74
0
42
0.000000001
43
0.0000000001
44
0.0000000001
40
0
40
0
40
0
40
0
40
1
40
1
40
1
40
1
41
1
41
1
41
1
41
1
10
183.15146305196163
20
-88.18178130698854
30
0
10
178.29860722051393
20
-96.994904922227789
30
0
10
167.03348676110224
20
-99.891674333328837
30
0
10
162.45415507001587
20
-100.40757501030512
30
0
0
SPLINE
5
436
100
AcDbEntity
8
0
100
AcDbSpline
70
4
71
3
72
8
73
4
74
0
42
0.000000001
43
0.0000000001
44
0.0000000001
40
0
40
0
40
0
40
0
40
1
40
1
40
1
40
1
41
1
41
1
41
1
41
1
10
162.45415507001587
20
-100.40757501030512
30
0
10
164.41518622528554
20
-97.966989092878407
30
0
10
163.27155778922594
20
-94.912706629996393
30
0
10
160.82133597810304
20
-93.764260247088657
30
0
0
SPLINE
5
437
100
AcDbEntity
8
0
100
AcDbSpline
70
4
71
3
72
8
73
4
74
0
42
0.000000001
43
0.0000000001
44
0.0000000001
40
3.0428118415778547e-06
40
3.0428118415778547e-06
40
3.0428118415778547e-06
40
3.0428118415778547e-06
40
1
40
1
40
1
40
1
41
1
41
1
41
1
41
1
10
160.82133742293047
20
-93.764257164534797
30
0
10
165.60938058639613
20
-93.426563147325723
30
0
10
168.8540336603487
20
-90.436984799289178
30
0
10
167.8454375930896
20
-84.436123471397693
30
0
0
SPLINE
5
438
100
AcDbEntity
8
0
100
AcDbSpline
70
4
71
3
72
8
73
4
74
0
42
0.000000001
43
0.0000000001
44
0.0000000001
40
0
40
0
40
0
40
0
40
1
40
1
40
1
40
1
41
1
41
1
41
1
41
1
10
167.8454375930896
20
-84.436123471397693
30
0
10
171.50935938302842
20
-89.337116508635262
30
0
10
179.62954390596798
20
-85.973640193638914
30
0
10
177.11440660047003
20
-81.210169955031802
30
0
0
SPLINE
5
439
100
AcDbEntity
8
0
100
AcDbSpline
70
4
71
3
72
8
73
4
74
0
42
0.000000001
43
0.0000000001
44
0.0000000001
40
0
40
0
40
0
40
0
40
1
40
1
40
1
40
1
41
1
41
1
41
1
41
1
10
177.11440660047003
20
-81.210169955031802
30
0
10
173.57207457440916
20
-82.717933742351093
30
0
10
171.84885558505613
20
-78.756482603193348
30
0
10
176.21708513134882
20
-76.277902525972905
30
0
0
SPLINE
5
440
100
AcDbEntity
8
0
100
AcDbSpline
70
4
71
3
72
8
73
4
74
0
42
0.000000001
43
0.0000000001
44
0.0000000001
40
-1
40
-1
40
-1
40
-1
40
-3.0428118385308752e-06
40
-3.0428118385308752e-06
40
-3.0428118385308752e-06
40
-3.0428118385308752e-06
41
1
41
1
41
1
41
1
10
110.8117238974291
20
-84.436123471397693
30
0
10
109.80312783016984
20
-90.436984799289178
30
0
10
113.0477809041227
20
-93.426563147325723
30
0
10
117.83582406758832
20
-93.764257164534797
30
0
0
SPLINE
5
441
100
AcDbEntity
8
0
100
AcDbSpline
70
4
71
3
72
8
73
4
74
0
42
0.000000001
43
0.0000000001
44
0.0000000001
40
-1
40
-1
40
-1
40
-1
40
0
40
0
40
0
40
0
41
1
41
1
41
1
41
1
10
117.83582551241587
20
-93.764260247088657
30
0
10
115.38560370129275
20
-94.912706629996393
30
0
10
114.24197526523315
20
-97.966989092878407
30
0
10
116.20300642050282
20
-100.40757501030512
30
0
0
SPLINE
5
442
100
AcDbEntity
8
0
100
AcDbSpline
70
4
71
3
72
8
73
4
74
0
42
0.000000001
43
0.0000000001
44
0.0000000001
40
-1
40
-1
40
-1
40
-1
40
0
40
0
40
0
40
0
41
1
41
1
41
1
41
1
10
116.20300642050282
20
-100.40757501030512
30
0
10
111.62367472941632
20
-99.891674333328837
30
0
10
100.35855427000477
20
-96.994904922227789
30
0
10
95.505698438557118
20
-88.18178130698854
30
0
0
SPLINE
5
443
100
AcDbEntity
8
0
100
AcDbSpline
70
4
71
3
72
8
73
4
74
0
42
0.000000001
43
0.0000000001
44
0.0000000001
40
-1
40
-1
40
-1
40
-1
40
0
40
0
40
0
40
0
41
1
41
1
41
1
41
1
10
95.505698438557118
20
-88.18178130698854
30
0
10
92.596799634952376
20
-82.106984271853037
30
0
10
97.110581891289058
20
-73.959328999340812
30
0
10
102.44007635916994
20
-76.277902525972905
30
0
0
SPLINE
5
444
100
AcDbEntity
8
0
100
AcDbSpline
70
4
71
3
72
8
73
4
74
0
42
0.000000001
43
0.0000000001
44
0.0000000001
40
-1
40
-1
40
-1
40
-1
40
0
40
0
40
0
40
0
41
1
41
1
41
1
41
1
10
102.44007635916994
20
-76.277902525972905
30
0
10
106.80830590546265
20
-78.756482603193348
30
0
10
105.08508691610956
20
-82.717933742351093
30
0
10
101.54275489004881
20
-81.210169955031802
30
0
0
SPLINE
5
445
100
AcDbEntity
8
0
100
AcDbSpline
70
4
71
3
72
8
73
4
74
0
42
0.000000001
43
0.0000000001
44
0.0000000001
40
-1
40
-1
40
-1
40
-1
40
0
40
0
40
0
40
0
41
1
41
1
41
1
41
1
10
101.54275489004881
20
-81.210169955031802
30
0
10
99.027617584550782
20
-85.973640193638914
30
0
10
107.14780210749026
20
-89.337116508635262
30
0
10
110.8117238974291
20
-84.436123471397693
30
0
0
SPLINE
5
446
100
AcDbEntity
8
0
100
AcDbSpline
70
4
71
3
72
8
73
4
74
0
42
0.000000001
43
0.0000000001
44
0.0000000001
40
-1
40
-1
40
-1
40
-1
40
0
40
0
40
0
40
0
41
1
41
1
41
1
41
1
10
135.67845772414421
20
-122.50162268860478
30
0
10
135.50082763113764
20
-123.17410663814573
30
0
10
134.81169218108633
20
-123.57530636998298
30
0
10
134.13920823154541
20
-123.39767627697637
30
0
0
SPLINE
5
447
100
AcDbEntity
8
0
100
AcDbSpline
70
4
71
3
72
8
73
4
74
0
42
0.000000001
43
0.0000000001
44
0.0000000001
40
-1
40
-1
40
-1
40
-1
40
0
40
0
40
0
40
0
41
1
41
1
41
1
41
1
10
134.13920823154541
20
-123.39767627697637
30
0
10
133.4666820193128
20
-123.22008844666136
30
0
10
133.06552455016714
20
-122.53091073391855
30
0
10
133.24315464317385
20
-121.85842678437749
30
0
0
SPLINE
5
448
100
AcDbEntity
8
0
100
AcDbSpline
70
4
71
3
72
8
73
4
74
0
42
0.000000001
43
0.0000000001
44
0.0000000001
40
-1
40
-1
40
-1
40
-1
40
0
40
0
40
0
40
0
41
1
41
1
41
1
41
1
10
133.24315464317385
20
-121.85842678437749
30
0
10
134.06761523188962
20
-119.55177133679079
30
0
10
134.78941974258652
20
-117.51061011815189
30
0
10
136.38179343859008
20
-113.4100301980811
30
0
0
SPLINE
5
449
100
AcDbEntity
8
0
100
AcDbSpline
70
4
71
3
72
8
73
4
74
0
42
0.000000001
43
0.0000000001
44
0.0000000001
40
-1
40
-1
40
-1
40
-1
40
0
40
0
40
0
40
0
41
1
41
1
41
1
41
1
10
136.38179343859008
20
-113.4100301980811
30
0
10
136.15881547744272
20
-117.54758997334598
30
0
10
135.97370488801388
20
-120.47250633708614
30
0
10
135.67845772414421
20
-122.50162268860478
30
0
0
SPLINE
5
450
100
AcDbEntity
8
0
100
AcDbSpline
70
4
71
3
72
8
73
4
74
0
42
0.000000001
43
0.0000000001
44
0.0000000001
40
-1
40
-1
40
-1
40
-1
40
0
40
0
40
0
40
0
41
1
41
1
41
1
41
1
10
150.16183989004148
20
-85.274319434899979
30
0
10
150.55936276770501
20
-84.703561784161423
30
0
10
151.34430773972781
20
-84.563122859807152
30
0
10
151.91506539046628
20
-84.960645737470699
30
0
0
SPLINE
5
451
100
AcDbEntity
8
0
100
AcDbSpline
70
4
71
3
72
8
73
4
74
0
42
0.000000001
43
0.0000000001
44
0.0000000001
40
-1
40
-1
40
-1
40
-1
40
0
40
0
40
0
40
0
41
1
41
1
41
1
41
1
10
151.91506539046628
20
-84.960645737470699
30
0
10
152.48582304120481
20
-85.358168615134275
30
0
10
152.62626196555914
20
-86.143113587156989
30
0
10
152.22873908789552
20
-86.713871237895546
30
0
0
SPLINE
5
452
100
AcDbEntity
8
0
100
AcDbSpline
70
4
71
3
72
8
73
4
74
0
42
0.000000001
43
0.0000000001
44
0.0000000001
40
-1
40
-1
40
-1
40
-1
40
0
40
0
40
0
40
0
41
1
41
1
41
1
41
1
10
152.22873908789552
20
-86.713871237895546
30
0
10
150.66307541301512
20
-88.597772980903329
30
0
10
149.28488903829594
20
-90.267487402626926
30
0
10
146.382540951897
20
-93.573063830062296
30
0
0
SPLINE
5
453
100
AcDbEntity
8
0
100
AcDbSpline
70
4
71
3
72
8
73
4
74
0
42
0.000000001
43
0.0000000001
44
0.0000000001
40
-1
40
-1
40
-1
40
-1
40
0
40
0
40
0
40
0
41
1
41
1
41
1
41
1
10
146.382540951897
20
-93.573063830062296
30
0
10
148.01126056271968
20
-89.762997652396237
30
0
10
149.1884455759498
20
-87.079063156446566
30
0
10
150.16183989004148
20
-85.274319434899979
30
0
0
SPLINE
5
454
100
AcDbEntity
8
0
100
AcDbSpline
70
4
71
3
72
8
73
4
74
0
42
0.000000001
43
0.0000000001
44
0.0000000001
40
0
40
0
40
0
40
0
40
1
40
1
40
1
40
1
41
1
41
1
41
1
41
1
10
128.49532160047721
20
-85.274319434899979
30
0
10
129.46871591456903
20
-87.079063156446566
30
0
10
130.645900927799
20
-89.762997652396237
30
0
10
132.27462053862183
20
-93.573063830062296
30
0
0
SPLINE
5
455
100
AcDbEntity
8
0
100
AcDbSpline
70
4
71
3
72
8
73
4
74
0
42
0.000000001
43
0.0000000001
44
0.0000000001
40
0
40
0
40
0
40
0
40
1
40
1
40
1
40
1
41
1
41
1
41
1
41
1
10
132.27462053862183
20
-93.573063830062296
30
0
10
129.37227245222289
20
-90.267487402626926
30
0
10
127.99408607750365
20
-88.597772980903329
30
0
10
126.42842240262318
20
-86.713871237895546
30
0
0
SPLINE
5
456
100
AcDbEntity
8
0
100
AcDbSpline
70
4
71
3
72
8
73
4
74
0
42
0.000000001
43
0.0000000001
44
0.0000000001
40
0
40
0
40
0
40
0
40
1
40
1
40
1
40
1
41
1
41
1
41
1
41
1
10
126.42842240262318
20
-86.713871237895546
30
0
10
126.03089952495971
20
-86.143113587156989
30
0
10
126.17133844931395
20
-85.358168615134275
30
0
10
126.74209610005249
20
-84.960645737470699
30
0
0
SPLINE
5
457
100
AcDbEntity
8
0
100
AcDbSpline
70
4
71
3
72
8
73
4
74
0
42
0.000000001
43
0.0000000001
44
0.0000000001
40
0
40
0
40
0
40
0
40
1
40
1
40
1
40
1
41
1
41
1
41
1
41
1
10
126.74209610005249
20
-84.960645737470699
30
0
10
127.31285375079104
20
-84.563122859807152
30
0
10
128.09779872281359
20
-84.703561784161423
30
0
10
128.49532160047721
20
-85.274319434899979
30
0
0
SPLINE
5
458
100
AcDbEntity
8
0
100
AcDbSpline
70
4
71
3
72
8
73
4
74
0
42
0.000000001
43
0.0000000001
44
0.0000000001
40
-1
40
-1
40
-1
40
-1
40
0
40
0
40
0
40
0
41
1
41
1
41
1
41
1
10
164.54408743481935
20
-127.88238180145751
30
0
10
157.70179991931272
20
-125.08569044418462
30
0
10
156.52634767644037
20
-129.7063550477051
30
0
10
150.35350119667598
20
-122.81791667291628
30
0
0
SPLINE
5
459
100
AcDbEntity
8
0
100
AcDbSpline
70
4
71
3
72
8
73
4
74
0
42
0.000000001
43
0.0000000001
44
0.0000000001
40
-1
40
-1
40
-1
40
-1
40
0
40
0
40
0
40
0
41
1
41
1
41
1
41
1
10
150.35350119667598
20
-122.81791667291628
30
0
10
153.45435714575677
20
-123.93800478972653
30
0
10
156.40484243794555
20
-120.82789331117428
30
0
10
154.8064251770362
20
-118.14471954367437
30
0
0
SPLINE
5
460
100
AcDbEntity
8
0
100
AcDbSpline
70
4
71
3
72
8
73
4
74
0
42
0.000000001
43
0.0000000001
44
0.0000000001
40
-1
40
-1
40
-1
40
-1
40
0
40
0
40
0
40
0
41
1
41
1
41
1
41
1
10
154.8064251770362
20
-118.14471954367437
30
0
10
157.48959894453611
20
-119.74313680458373
30
0
10
160.59971042308831
20
-116.79269377508672
30
0
10
159.47962230627795
20
-113.69179556331417
30
0
0
SPLINE
5
461
100
AcDbEntity
8
0
100
AcDbSpline
70
4
71
3
72
8
73
4
74
0
42
0.000000001
43
0.0000000001
44
0.0000000001
40
-1
40
-1
40
-1
40
-1
40
0
40
0
40
0
40
0
41
1
41
1
41
1
41
1
10
159.47962230627795
20
-113.69179556331417
30
0
10
166.36810294375857
20
-119.86464204307867
30
0
10
161.7473960775464
20
-121.04005202325929
30
0
10
164.54408743481935
20
-127.88238180145751
30
0
0
SPLINE
5
462
100
AcDbEntity
8
0
100
AcDbSpline
70
4
71
3
72
8
73
4
74
0
42
0.000000001
43
0.0000000001
44
0.0000000001
40
0
40
0
40
0
40
0
40
1
40
1
40
1
40
1
41
1
41
1
41
1
41
1
10
165.7175110684924
20
-139.55533723529541
30
0
10
168.03608459512441
20
-144.8848317031763
30
0
10
159.88842932261235
20
-149.39861395951294
30
0
10
153.81363228747682
20
-146.48971515590824
30
0
0
SPLINE
5
463
100
AcDbEntity
8
0
100
AcDbSpline
70
4
71
3
72
8
73
4
74
0
42
0.000000001
43
0.0000000001
44
0.0000000001
40
0
40
0
40
0
40
0
40
1
40
1
40
1
40
1
41
1
41
1
41
1
41
1
10
153.81363228747682
20
-146.48971515590824
30
0
10
145.00050867223757
20
-141.63685932446046
30
0
10
142.10373926113647
20
-130.37173886504885
30
0
10
141.58783858416015
20
-125.79240717396243
30
0
0
SPLINE
5
464
100
AcDbEntity
8
0
100
AcDbSpline
70
4
71
3
72
8
73
4
74
0
42
0.000000001
43
0.0000000001
44
0.0000000001
40
0
40
0
40
0
40
0
40
1
40
1
40
1
40
1
41
1
41
1
41
1
41
1
10
141.58783858416015
20
-125.79240717396243
30
0
10
144.02842450158693
20
-127.75343832923227
30
0
10
147.08270696446888
20
-126.6098098931726
30
0
10
148.23115334737679
20
-124.15958808204959
30
0
0
SPLINE
5
465
100
AcDbEntity
8
0
100
AcDbSpline
70
4
71
3
72
8
73
4
74
0
42
0.000000001
43
0.0000000001
44
0.0000000001
40
3.0428118389103981e-06
40
3.0428118389103981e-06
40
3.0428118389103981e-06
40
3.0428118389103981e-06
40
1
40
1
40
1
40
1
41
1
41
1
41
1
41
1
10
148.23115642993059
20
-124.15958952687706
30
0
10
148.56885044713954
20
-128.9476326903426
30
0
10
151.55842879517598
20
-132.19228576429538
30
0
10
157.55929012306757
20
-131.18368969703613
30
0
0
SPLINE
5
466
100
AcDbEntity
8
0
100
AcDbSpline
70
4
71
3
72
8
73
4
74
0
42
0.000000001
43
0.0000000001
44
0.0000000001
40
0
40
0
40
0
40
0
40
1
40
1
40
1
40
1
41
1
41
1
41
1
41
1
10
157.55929012306757
20
-131.18368969703613
30
0
10
152.65829708583013
20
-134.8476114869751
30
0
10
156.02177340082648
20
-142.96779600991459
30
0
10
160.78524363943365
20
-140.45265870441654
30
0
0
SPLINE
5
467
100
AcDbEntity
8
0
100
AcDbSpline
70
4
71
3
72
8
73
4
74
0
42
0.000000001
43
0.0000000001
44
0.0000000001
40
0
40
0
40
0
40
0
40
1
40
1
40
1
40
1
41
1
41
1
41
1
41
1
10
160.78524363943365
20
-140.45265870441654
30
0
10
159.27747985211425
20
-136.91032667835572
30
0
10
163.23893099127196
20
-135.18710768900266
30
0
10
165.7175110684924
20
-139.55533723529541
30
0
0
SPLINE
5
468
100
AcDbEntity
8
0
100
AcDbSpline
70
4
71
3
72
8
73
4
74
0
42
0.000000001
43
0.0000000001
44
0.0000000001
40
-1
40
-1
40
-1
40
-1
40
-3.0428118436122572e-06
40
-3.0428118436122572e-06
40
-3.0428118436122572e-06
40
-3.0428118436122572e-06
41
1
41
1
41
1
41
1
10
167.8454375930896
20
-120.89754222701416
30
0
10
168.8540336603487
20
-114.89668089912271
30
0
10
165.60938058639613
20
-111.90710255108613
30
0
10
160.82133742293047
20
-111.56940853387712
30
0
0
SPLINE
5
469
100
AcDbEntity
8
0
100
AcDbSpline
70
4
71
3
72
8
73
4
74
0
42
0.000000001
43
0.0000000001
44
0.0000000001
40
-1
40
-1
40
-1
40
-1
40
0
40
0
40
0
40
0
41
1
41
1
41
1
41
1
10
160.82133597810304
20
-111.56940545132329
30
0
10
163.27155778922594
20
-110.42095906841553
30
0
10
164.41518622528554
20
-107.36667660553351
30
0
10
162.45415507001587
20
-104.92609068810673
30
0
0
SPLINE
5
470
100
AcDbEntity
8
0
100
AcDbSpline
70
4
71
3
72
8
73
4
74
0
42
0.000000001
43
0.0000000001
44
0.0000000001
40
-1
40
-1
40
-1
40
-1
40
0
40
0
40
0
40
0
41
1
41
1
41
1
41
1
10
162.45415507001587
20
-104.92609068810673
30
0
10
167.03348676110224
20
-105.44199136508304
30
0
10
178.29860722051393
20
-108.33876077618413
30
0
10
183.15146305196163
20
-117.15188439142338
30
0
0
SPLINE
5
471
100
AcDbEntity
8
0
100
AcDbSpline
70
4
71
3
72
8
73
4
74
0
42
0.000000001
43
0.0000000001
44
0.0000000001
40
-1
40
-1
40
-1
40
-1
40
0
40
0
40
0
40
0
41
1
41
1
41
1
41
1
10
183.15146305196163
20
-117.15188439142338
30
0
10
186.06036185556636
20
-123.22668142655883
30
0
10
181.54657959922972
20
-131.37433669907102
30
0
10
176.21708513134882
20
-129.05576317243901
30
0
0
SPLINE
5
472
100
AcDbEntity
8
0
100
AcDbSpline
70
4
71
3
72
8
73
4
74
0
42
0.000000001
43
0.0000000001
44
0.0000000001
40
-1
40
-1
40
-1
40
-1
40
0
40
0
40
0
40
0
41
1
41
1
41
1
41
1
10
176.21708513134882
20
-129.05576317243901
30
0
10
171.84885558505613
20
-126.57718309521854
30
0
10
173.57207457440916
20
-122.61573195606083
30
0
10
177.11440660047003
20
-124.12349574338016
30
0
0
SPLINE
5
473
100
AcDbEntity
8
0
100
AcDbSpline
70
4
71
3
72
8
73
4
74
0
42
0.000000001
43
0.0000000001
44
0.0000000001
40
-1
40
-1
40
-1
40
-1
40
0
40
0
40
0
40
0
41
1
41
1
41
1
41
1
10
177.11440660047003
20
-124.12349574338016
30
0
10
179.62954390596798
20
-119.36002550477298
30
0
10
171.50935938302842
20
-115.9965491897766
30
0
10
167.8454375930896
20
-120.89754222701416
30
0
0
SPLINE
5
474
100
AcDbEntity
8
0
100
AcDbSpline
70
4
71
3
72
8
73
4
74
0
42
0.000000001
43
0.0000000001
44
0.0000000001
40
-1
40
-1
40
-1
40
-1
40
0
40
0
40
0
40
0
41
1
41
1
41
1
41
1
10
159.60636811853755
20
-105.69746933610958
30
0
10
160.2813033041943
20
-105.86554806080315
30
0
10
160.69222345511099
20
-106.54893578479005
30
0
10
160.5241447304175
20
-107.22387097044681
30
0
0
SPLINE
5
475
100
AcDbEntity
8
0
100
AcDbSpline
70
4
71
3
72
8
73
4
74
0
42
0.000000001
43
0.0000000001
44
0.0000000001
40
-1
40
-1
40
-1
40
-1
40
0
40
0
40
0
40
0
41
1
41
1
41
1
41
1
10
160.5241447304175
20
-107.22387097044681
30
0
10
160.35610826841548
20
-107.89880615610355
30
0
10
159.67267828173703
20
-108.30972630702028
30
0
10
158.99774309608034
20
-108.14164758232661
30
0
0
SPLINE
5
476
100
AcDbEntity
8
0
100
AcDbSpline
70
4
71
3
72
8
73
4
74
0
42
0.000000001
43
0.0000000001
44
0.0000000001
40
-1
40
-1
40
-1
40
-1
40
0
40
0
40
0
40
0
41
1
41
1
41
1
41
1
10
158.99774309608034
20
-108.14164758232661
30
0
10
156.67963445905633
20
-107.34998284233157
30
0
10
154.62845698249629
20
-106.65721280079836
30
0
10
150.50568914930915
20
-105.12316161927257
30
0
0
SPLINE
5
477
100
AcDbEntity
8
0
100
AcDbSpline
70
4
71
3
72
8
73
4
74
0
42
0.000000001
43
0.0000000001
44
0.0000000001
40
-1
40
-1
40
-1
40
-1
40
0
40
0
40
0
40
0
41
1
41
1
41
1
41
1
10
150.50568914930915
20
-105.12316161927257
30
0
10
154.64603826222282
20
-105.28743670171761
30
0
10
157.57327907400395
20
-105.43100306525389
30
0
10
159.60636811853755
20
-105.69746933610958
30
0
0
SPLINE
5
478
100
AcDbEntity
8
0
100
AcDbSpline
70
4
71
3
72
8
73
4
74
0
42
0.000000001
43
0.0000000001
44
0.0000000001
40
-1
40
-1
40
-1
40
-1
40
0
40
0
40
0
40
0
41
1
41
1
41
1
41
1
10
128.49532160047721
20
-119.40089352759881
30
0
10
128.09779872281359
20
-119.97165117833745
30
0
10
127.31285375079104
20
-120.1120901026917
30
0
10
126.74209610005249
20
-119.71456722502808
30
0
0
SPLINE
5
479
100
AcDbEntity
8
0
100
AcDbSpline
70
4
71
3
72
8
73
4
74
0
42
0.000000001
43
0.0000000001
44
0.0000000001
40
-1
40
-1
40
-1
40
-1
40
0
40
0
40
0
40
0
41
1
41
1
41
1
41
1
10
126.74209610005249
20
-119.71456722502808
30
0
10
126.17133844931395
20
-119.31704434736453
30
0
10
126.03089952495971
20
-118.53209937534182
30
0
10
126.42842240262318
20
-117.96134172460339
30
0
0
SPLINE
5
480
100
AcDbEntity
8
0
100
AcDbSpline
70
4
71
3
72
8
73
4
74
0
42
0.000000001
43
0.0000000001
44
0.0000000001
40
-1
40
-1
40
-1
40
-1
40
0
40
0
40
0
40
0
41
1
41
1
41
1
41
1
10
126.42842240262318
20
-117.96134172460339
30
0
10
127.99408607750365
20
-116.07743998159552
30
0
10
129.37227245222289
20
-114.40772555987181
30
0
10
132.27462053862183
20
-111.10214913243652
30
0
0
SPLINE
5
481
100
AcDbEntity
8
0
100
AcDbSpline
70
4
71
3
72
8
73
4
74
0
42
0.000000001
43
0.0000000001
44
0.0000000001
40
-1
40
-1
40
-1
40
-1
40
0
40
0
40
0
40
0
41
1
41
1
41
1
41
1
10
132.27462053862183
20
-111.10214913243652
30
0
10
130.645900927799
20
-114.91221531010254
30
0
10
129.46871591456903
20
-117.59614980605228
30
0
10
128.49532160047721
20
-119.40089352759881
30
0
0
SPLINE
5
482
100
AcDbEntity
8
0
100
AcDbSpline
70
4
71
3
72
8
73
4
74
0
42
0.000000001
43
0.0000000001
44
0.0000000001
40
0
40
0
40
0
40
0
40
1
40
1
40
1
40
1
41
1
41
1
41
1
41
1
10
112.93965042202615
20
-65.778328463116438
30
0
10
110.62107689539431
20
-60.448833995235631
30
0
10
118.76873216790649
20
-55.935051738898949
30
0
10
124.8435292030419
20
-58.843950542503691
30
0
0
SPLINE
5
483
100
AcDbEntity
8
0
100
AcDbSpline
70
4
71
3
72
8
73
4
74
0
42
0.000000001
43
0.0000000001
44
0.0000000001
40
0
40
0
40
0
40
0
40
1
40
1
40
1
40
1
41
1
41
1
41
1
41
1
10
124.8435292030419
20
-58.843950542503691
30
0
10
133.65665281828115
20
-63.696806373951453
30
0
10
136.55342222938231
20
-74.961926833363037
30
0
10
137.06932290635854
20
-79.541258524449461
30
0
0
SPLINE
5
484
100
AcDbEntity
8
0
100
AcDbSpline
70
4
71
3
72
8
73
4
74
0
42
0.000000001
43
0.0000000001
44
0.0000000001
40
0
40
0
40
0
40
0
40
1
40
1
40
1
40
1
41
1
41
1
41
1
41
1
10
137.06932290635854
20
-79.541258524449461
30
0
10
134.62873698893196
20
-77.580227369179767
30
0
10
131.57445452604981
20
-78.723855805239253
30
0
10
130.42600814314204
20
-81.174077616362297
30
0
0
SPLINE
5
485
100
AcDbEntity
8
0
100
AcDbSpline
70
4
71
3
72
8
73
4
74
0
42
0.000000001
43
0.0000000001
44
0.0000000001
40
3.0428118398944962e-06
40
3.0428118398944962e-06
40
3.0428118398944962e-06
40
3.0428118398944962e-06
40
1
40
1
40
1
40
1
41
1
41
1
41
1
41
1
10
130.42600506058824
20
-81.174076171534821
30
0
10
130.08831104337929
20
-76.386033008069234
30
0
10
127.0987326953427
20
-73.1413799341166
30
0
10
121.09787136745105
20
-74.149976001375819
30
0
0
SPLINE
5
486
100
AcDbEntity
8
0
100
AcDbSpline
70
4
71
3
72
8
73
4
74
0
42
0.000000001
43
0.0000000001
44
0.0000000001
40
0
40
0
40
0
40
0
40
1
40
1
40
1
40
1
41
1
41
1
41
1
41
1
10
121.09787136745105
20
-74.149976001375819
30
0
10
125.99886440468872
20
-70.486054211436766
30
0
10
122.6353880896923
20
-62.365869688497355
30
0
10
117.87191785108519
20
-64.881006993995356
30
0
0
SPLINE
5
487
100
AcDbEntity
8
0
100
AcDbSpline
70
4
71
3
72
8
73
4
74
0
42
0.000000001
43
0.0000000001
44
0.0000000001
40
0
40
0
40
0
40
0
40
1
40
1
40
1
40
1
41
1
41
1
41
1
41
1
10
117.87191785108519
20
-64.881006993995356
30
0
10
119.37968163840452
20
-68.423339020056133
30
0
10
115.4182304992468
20
-70.146558009409148
30
0
10
112.93965042202615
20
-65.778328463116438
30
0
0
SPLINE
5
488
100
AcDbEntity
8
0
100
AcDbSpline
70
4
71
3
72
8
73
4
74
0
42
0.000000001
43
0.0000000001
44
0.0000000001
40
-1
40
-1
40
-1
40
-1
40
0
40
0
40
0
40
0
41
1
41
1
41
1
41
1
10
114.11307405569943
20
-77.451283896954408
30
0
10
120.95536157120598
20
-80.247975254227271
30
0
10
122.13081381407832
20
-75.627310650706789
30
0
10
128.30366029384271
20
-82.515749025495609
30
0
0
SPLINE
5
489
100
AcDbEntity
8
0
100
AcDbSpline
70
4
71
3
72
8
73
4
74
0
42
0.000000001
43
0.0000000001
44
0.0000000001
40
-1
40
-1
40
-1
40
-1
40
0
40
0
40
0
40
0
41
1
41
1
41
1
41
1
10
128.30366029384271
20
-82.515749025495609
30
0
10
125.20280434476192
20
-81.395660908685272
30
0
10
122.25231905257317
20
-84.505772387237556
30
0
10
123.85073631348256
20
-87.188946154737579
30
0
0
SPLINE
5
490
100
AcDbEntity
8
0
100
AcDbSpline
70
4
71
3
72
8
73
4
74
0
42
0.000000001
43
0.0000000001
44
0.0000000001
40
-1
40
-1
40
-1
40
-1
40
0
40
0
40
0
40
0
41
1
41
1
41
1
41
1
10
123.85073631348256
20
-87.188946154737579
30
0
10
121.16756254598272
20
-85.590528893828122
30
0
10
118.05745106743032
20
-88.540971923325145
30
0
10
119.17753918424076
20
-91.641870135097676
30
0
0
SPLINE
5
491
100
AcDbEntity
8
0
100
AcDbSpline
70
4
71
3
72
8
73
4
74
0
42
0.000000001
43
0.0000000001
44
0.0000000001
40
-1
40
-1
40
-1
40
-1
40
0
40
0
40
0
40
0
41
1
41
1
41
1
41
1
10
119.17753918424076
20
-91.641870135097676
30
0
10
112.28905854676015
20
-85.469023655333245
30
0
10
116.90976541297239
20
-84.293613675152585
30
0
10
114.11307405569943
20
-77.451283896954408
30
0
0
SPLINE
5
492
100
AcDbEntity
8
0
100
AcDbSpline
70
4
71
3
72
8
73
4
74
0
42
0.000000001
43
0.0000000001
44
0.0000000001
40
-1
40
-1
40
-1
40
-1
40
0
40
0
40
0
40
0
41
1
41
1
41
1
41
1
10
119.05079337198124
20
-98.977743626389127
30
0
10
118.37585818632434
20
-98.809664901695555
30
0
10
117.9649380354077
20
-98.126277177708687
30
0
10
118.13301676010127
20
-97.451341992051965
30
0
0
SPLINE
5
493
100
AcDbEntity
8
0
100
AcDbSpline
70
4
71
3
72
8
73
4
74
0
42
0.000000001
43
0.0000000001
44
0.0000000001
40
-1
40
-1
40
-1
40
-1
40
0
40
0
40
0
40
0
41
1
41
1
41
1
41
1
10
119.65941839443836
20
-96.533565380172135
30
0
10
121.97752703146236
20
-97.325230120167276
30
0
10
124.02870450802233
20
-98.018000161700485
30
0
10
128.15147234120971
20
-99.552051343226282
30
0
0
SPLINE
5
494
100
AcDbEntity
8
0
100
AcDbSpline
70
4
71
3
72
8
73
4
74
0
42
0.000000001
43
0.0000000001
44
0.0000000001
40
-1
40
-1
40
-1
40
-1
40
0
40
0
40
0
40
0
41
1
41
1
41
1
41
1
10
118.13301676010127
20
-97.451341992051965
30
0
10
118.30105322210315
20
-96.776406806395272
30
0
10
118.98448320878167
20
-96.365486655478492
30
0
10
119.65941839443836
20
-96.533565380172135
30
0
0
SPLINE
5
495
100
AcDbEntity
8
0
100
AcDbSpline
70
4
71
3
72
8
73
4
74
0
42
0.000000001
43
0.0000000001
44
0.0000000001
40
-1
40
-1
40
-1
40
-1
40
0
40
0
40
0
40
0
41
1
41
1
41
1
41
1
10
128.15147234120971
20
-99.552051343226282
30
0
10
124.0111232282959
20
-99.387776260781209
30
0
10
121.0838824165149
20
-99.244209897244886
30
0
10
119.05079337198124
20
-98.977743626389127
30
0
0
SPLINE
5
496
100
AcDbEntity
8
0
100
AcDbSpline
70
4
71
3
72
8
73
4
74
0
42
0.000000001
43
0.0000000001
44
0.0000000001
40
0
40
0
40
0
40
0
40
1
40
1
40
1
40
1
41
1
41
1
41
1
41
1
10
677.11440660047003
20
83.789830044968198
30
0
10
673.57207457440927
20
82.282066257648907
30
0
10
671.84885558505607
20
86.243517396806652
30
0
10
676.21708513134888
20
88.722097474027095
30
0
0
SPLINE
5
497
100
AcDbEntity
8
0
100
AcDbSpline
70
4
71
3
72
8
73
4
74
0
42
0.000000001
43
0.0000000001
44
0.0000000001
40
-1
40
-1
40
-1
40
-1
40
0
40
0
40
0
40
0
41
1
41
1
41
1
41
1
10
646.43959558562506
20
6.7293904957787731
30
0
10
646.66481346942987
20
2.0607154745434286
30
0
10
643.17201331798344
20
-4.0816596045410591
30
0
10
639.32855961391351
20
-5.5595014061719183
30
0
0
SPLINE
5
498
100
AcDbEntity
8
0
100
AcDbSpline
70
4
71
3
72
8
73
4
74
0
42
0.000000001
43
0.0000000001
44
0.0000000001
40
0
40
0
40
0
40
0
40
0.99999795275309999
40
0.99999795275309999
40
0.99999795275309999
40
0.99999795275309999
41
1
41
1
41
1
41
1
10
639.32855961391351
20
99.507071493598644
30
0
10
636.85750735467127
20
106.49143187969436
30
0
10
632.39576368151938
20
111.06433521663686
30
0
10
632.21752473684796
20
117.9369438586054
30
0
0
SPLINE
5
499
100
AcDbEntity
8
0
100
AcDbSpline
70
4
71
3
72
8
73
4
74
0
42
0.000000001
43
0.0000000001
44
0.0000000001
40
0
40
0
40
0
40
0
40
1
40
1
40
1
40
1
41
1
41
1
41
1
41
1
10
642.27536805192869
20
51.511403458140848
30
0
10
643.86774174793209
20
47.410823538070019
30
0
10
644.58954625862918
20
45.36966231943115
30
0
10
645.41400684734504
20
43.0630068718445
30
0
0
LINE
5
500
100
AcDbEntity
8
0
100
AcDbLine
10
632.21752473684796
20
117.9369438586054
30
0
11
632.21752262572295
21
117.93698600813997
31
0
0
SPLINE
5
501
100
AcDbEntity
8
0
100
AcDbSpline
70
4
71
3
72
8
73
4
74
0
42
0.000000001
43
0.0000000001
44
0.0000000001
40
0
40
0
40
0
40
0
40
1
40
1
40
1
40
1
41
1
41
1
41
1
41
1
10
614.11307405569949
20
37.117618198542495
30
0
10
616.90976541297243
20
43.959947976740708
30
0
10
612.2890585467602
20
45.135357956921318
30
0
10
619.17753918424069
20
51.308204436685827
30
0
0
SPLINE
5
502
100
AcDbEntity
8
0
100
AcDbSpline
70
4
71
3
72
8
73
4
74
0
42
0.000000001
43
0.0000000001
44
0.0000000001
40
-1
40
-1
40
-1
40
-1
40
0
40
0
40
0
40
0
41
1
41
1
41
1
41
1
10
632.2175236422022
20
6.7293904957787731
30
0
10
632.39574541289176
20
13.602022623890377
30
0
10
636.85750229580685
20
18.174930385845904
30
0
10
639.32855961391351
20
25.159305070681128
30
0
0
SPLINE
5
503
100
AcDbEntity
8
0
100
AcDbSpline
70
4
71
3
72
8
73
4
74
0
42
0.000000001
43
0.0000000001
44
0.0000000001
40
-1
40
-1
40
-1
40
-1
40
0
40
0
40
0
40
0
41
1
41
1
41
1
41
1
10
639.32855961391351
20
25.159305070681128
30
0
10
641.79961693202029
20
18.174888123154318
30
0
10
646.26137381493527
20
13.602022623890377
30
0
10
646.43959558562506
20
6.7293904957787731
30
0
0
SPLINE
5
504
100
AcDbEntity
8
0
100
AcDbSpline
70
4
71
3
72
8
73
4
74
0
42
0.000000001
43
0.0000000001
44
0.0000000001
40
0
40
0
40
0
40
0
40
1
40
1
40
1
40
1
41
1
41
1
41
1
41
1
10
642.97870376637445
20
42.41981096761716
30
0
10
642.68345660250486
20
44.448927319135692
30
0
10
642.49834601307612
20
47.373843682876
30
0
10
642.27536805192869
20
51.511403458140848
30
0
0
SPLINE
5
505
100
AcDbEntity
8
0
100
AcDbSpline
70
4
71
3
72
8
73
4
74
0
42
0.000000001
43
0.0000000001
44
0.0000000001
40
0
40
0
40
0
40
0
40
1
40
1
40
1
40
1
41
1
41
1
41
1
41
1
10
634.13920823154535
20
83.722463314477551
30
0
10
634.81169218108641
20
83.900093407484093
30
0
10
635.50082763113767
20
83.498893675646997
30
0
10
635.67845772414421
20
82.826409726105965
30
0
0
SPLINE
5
506
100
AcDbEntity
8
0
100
AcDbSpline
70
4
71
3
72
8
73
4
74
0
42
0.000000001
43
0.0000000001
44
0.0000000001
40
0
40
0
40
0
40
0
40
1
40
1
40
1
40
1
41
1
41
1
41
1
41
1
10
623.85073631348268
20
46.855280456325623
30
0
10
622.25231905257328
20
44.172106688825714
30
0
10
625.20280434476194
20
41.061995210273459
30
0
10
628.30366029384277
20
42.182083327083717
30
0
0
SPLINE
5
507
100
AcDbEntity
8
0
100
AcDbSpline
70
4
71
3
72
8
73
4
74
0
42
0.000000001
43
0.0000000001
44
0.0000000001
40
-1
40
-1
40
-1
40
-1
40
0
40
0
40
0
40
0
41
1
41
1
41
1
41
1
10
639.32855961391351
20
-5.5595014061719183
30
0
10
635.48514817253545
20
-4.081701867232681
30
0
10
631.99234802108879
20
2.0607154745434286
30
0
10
632.2175236422022
20
6.7293904957787731
30
0
0
SPLINE
5
508
100
AcDbEntity
8
0
100
AcDbSpline
70
4
71
3
72
8
73
4
74
0
42
0.000000001
43
0.0000000001
44
0.0000000001
40
0
40
0
40
0
40
0
40
1
40
1
40
1
40
1
41
1
41
1
41
1
41
1
10
659.47962230627809
20
73.358129864902324
30
0
10
660.59971042308825
20
76.459028076674855
30
0
10
657.48959894453606
20
79.409471106171878
30
0
10
654.80642517703609
20
77.811053845262421
30
0
0
SPLINE
5
509
100
AcDbEntity
8
0
100
AcDbSpline
70
4
71
3
72
8
73
4
74
0
42
0.000000001
43
0.0000000001
44
0.0000000001
40
0
40
0
40
0
40
0
40
1
40
1
40
1
40
1
41
1
41
1
41
1
41
1
10
636.38179343859008
20
73.734817235582256
30
0
10
634.78941974258657
20
77.835397155653041
30
0
10
634.06761523188959
20
79.876558374292017
30
0
10
633.24315464317374
20
82.183213821878695
30
0
0
SPLINE
5
510
100
AcDbEntity
8
0
100
AcDbSpline
70
4
71
3
72
8
73
4
74
0
42
0.000000001
43
0.0000000001
44
0.0000000001
40
0
40
0
40
0
40
0
40
1
40
1
40
1
40
1
41
1
41
1
41
1
41
1
10
628.30366029384277
20
42.182083327083717
30
0
10
622.13081381407835
20
35.293644952294905
30
0
10
620.95536157120603
20
39.914309555815386
30
0
10
614.11307405569949
20
37.117618198542495
30
0
0
SPLINE
5
511
100
AcDbEntity
8
0
100
AcDbSpline
70
4
71
3
72
8
73
4
74
0
42
0.000000001
43
0.0000000001
44
0.0000000001
40
0
40
0
40
0
40
0
40
1
40
1
40
1
40
1
41
1
41
1
41
1
41
1
10
653.81363228747682
20
18.510284844091771
30
0
10
645.00050867223763
20
23.363140675539533
30
0
10
642.10373926113652
20
34.628261134951153
30
0
10
641.58783858416018
20
39.207592826037576
30
0
0
SPLINE
5
512
100
AcDbEntity
8
0
100
AcDbSpline
70
4
71
3
72
8
73
4
74
0
42
0.000000001
43
0.0000000001
44
0.0000000001
40
3.0096524487652198e-06
40
3.0096524487652198e-06
40
3.0096524487652198e-06
40
3.0096524487652198e-06
40
1
40
1
40
1
40
1
41
1
41
1
41
1
41
1
10
632.21752160920209
20
117.93698595911692
30
0
10
631.99236904532108
20
122.60565580008524
30
0
10
635.4851597398681
20
128.74804061648382
30
0
10
639.32855961391351
20
130.22583570775998
30
0
0
SPLINE
5
513
100
AcDbEntity
8
0
100
AcDbSpline
70
4
71
3
72
8
73
4
74
0
42
0.000000001
43
0.0000000001
44
0.0000000001
40
0
40
0
40
0
40
0
40
1
40
1
40
1
40
1
41
1
41
1
41
1
41
1
10
657.55929012306763
20
33.816310302963863
30
0
10
652.6582970858301
20
30.152388513024917
30
0
10
656.02177340082653
20
22.032203990085399
30
0
10
660.78524363943359
20
24.547341295583465
30
0
0
SPLINE
5
514
100
AcDbEntity
8
0
100
AcDbSpline
70
4
71
3
72
8
73
4
74
0
42
0.000000001
43
0.0000000001
44
0.0000000001
40
0
40
0
40
0
40
0
40
1
40
1
40
1
40
1
41
1
41
1
41
1
41
1
10
660.78524363943359
20
24.547341295583465
30
0
10
659.27747985211431
20
28.089673321644284
30
0
10
663.23893099127201
20
29.812892310997334
30
0
10
665.71751106849229
20
25.444662764704589
30
0
0
SPLINE
5
515
100
AcDbEntity
8
0
100
AcDbSpline
70
4
71
3
72
8
73
4
74
0
42
0.000000001
43
0.0000000001
44
0.0000000001
40
0
40
0
40
0
40
0
40
1
40
1
40
1
40
1
41
1
41
1
41
1
41
1
10
641.58783858416018
20
39.207592826037576
30
0
10
644.02842450158687
20
37.246561670767733
30
0
10
647.08270696446903
20
38.390190106827404
30
0
10
648.23115334737668
20
40.840411917950412
30
0
0
SPLINE
5
516
100
AcDbEntity
8
0
100
AcDbSpline
70
4
71
3
72
8
73
4
74
0
42
0.000000001
43
0.0000000001
44
0.0000000001
40
0
40
0
40
0
40
0
40
1
40
1
40
1
40
1
41
1
41
1
41
1
41
1
10
619.17753918424069
20
51.308204436685827
30
0
10
618.05745106743041
20
48.207306224913289
30
0
10
621.16756254598261
20
45.256863195416273
30
0
10
623.85073631348268
20
46.855280456325623
30
0
0
SPLINE
5
517
100
AcDbEntity
8
0
100
AcDbSpline
70
4
71
3
72
8
73
4
74
0
42
0.000000001
43
0.0000000001
44
0.0000000001
40
0
40
0
40
0
40
0
40
1
40
1
40
1
40
1
41
1
41
1
41
1
41
1
10
618.13301676010133
20
57.776129029553189
30
0
10
617.96493803540773
20
58.451064215209954
30
0
10
618.37585818632442
20
59.13445193919685
30
0
10
619.05079337198117
20
59.302530663890423
30
0
0
SPLINE
5
518
100
AcDbEntity
8
0
100
AcDbSpline
70
4
71
3
72
8
73
4
74
0
42
0.000000001
43
0.0000000001
44
0.0000000001
40
-1
40
-1
40
-1
40
-1
40
0
40
0
40
0
40
0
41
1
41
1
41
1
41
1
10
648.23115334737668
20
83.825922383637703
30
0
10
647.08270696446903
20
86.276144194760747
30
0
10
644.02842450158687
20
87.419772630820233
30
0
10
641.58783858416018
20
85.458741475550539
30
0
0
SPLINE
5
519
100
AcDbEntity
8
0
100
AcDbSpline
70
4
71
3
72
8
73
4
74
0
42
0.000000001
43
0.0000000001
44
0.0000000001
40
0
40
0
40
0
40
0
40
1
40
1
40
1
40
1
41
1
41
1
41
1
41
1
10
644.51795325897342
20
41.523757379245616
30
0
10
643.84546930943225
20
41.346127286238996
30
0
10
643.15633385938111
20
41.74732701807617
30
0
10
642.97870376637445
20
42.41981096761716
30
0
0
LWPOLYLINE
5
520
100
AcDbEntity
8
0
100
AcDbPolyline
90
18
70
1
43
0.0
10
735
20
152.5
10
735
20
150
10
550
20
150
10
550
20
40
10
552.5
20
40
10
552.5
20
-40
10
550
20
-40
10
550
20
-150
10
662.5
20
-150
42
-0.99999999999999989
10
887.5
20
-150
10
1000
20
-150
10
1000
20
-40
10
997.5
20
-40
10
997.5
20
40
10
1000
20
40
10
1000
20
150
10
815
20
150
10
815
20
152.5
0
SPLINE
5
521
100
AcDbEntity
8
0
100
AcDbSpline
70
4
71
3
72
8
73
4
74
0
42
0.000000001
43
0.0000000001
44
0.0000000001
40
-1
40
-1
40
-1
40
-1
40
-3.0428118353504495e-06
40
-3.0428118353504495e-06
40
-3.0428118353504495e-06
40
-3.0428118353504495e-06
41
1
41
1
41
1
41
1
10
621.09787136745115
20
33.816310302963863
30
0
10
627.09873269534273
20
32.807714235704637
30
0
10
630.08831104337924
20
36.052367309657392
30
0
10
630.4260050605883
20
40.840410473122937
30
0
0
SPLINE
5
522
100
AcDbEntity
8
0
100
AcDbSpline
70
4
71
3
72
8
73
4
74
0
42
0.000000001
43
0.0000000001
44
0.0000000001
40
-1
40
-1
40
-1
40
-1
40
0
40
0
40
0
40
0
41
1
41
1
41
1
41
1
10
654.80642517703609
20
46.855280456325623
30
0
10
657.48959894453606
20
45.256863195416273
30
0
10
660.59971042308825
20
48.207306224913289
30
0
10
659.47962230627809
20
51.308204436685827
30
0
0
SPLINE
5
523
100
AcDbEntity
8
0
100
AcDbSpline
70
4
71
3
72
8
73
4
74
0
42
0.000000001
43
0.0000000001
44
0.0000000001
40
0
40
0
40
0
40
0
40
1
40
1
40
1
40
1
41
1
41
1
41
1
41
1
10
602.44007635916989
20
35.944236827560978
30
0
10
597.11058189128903
20
33.625663300928963
30
0
10
592.59679963495239
20
41.77331857344118
30
0
10
595.50569843855715
20
47.84811560857662
30
0
0
SPLINE
5
524
100
AcDbEntity
8
0
100
AcDbSpline
70
4
71
3
72
8
73
4
74
0
42
0.000000001
43
0.0000000001
44
0.0000000001
40
-1
40
-1
40
-1
40
-1
40
0
40
0
40
0
40
0
41
1
41
1
41
1
41
1
10
660.82133597810298
20
53.430594548676709
30
0
10
663.27155778922599
20
54.579040931584473
30
0
10
664.41518622528565
20
57.633323394466487
30
0
10
662.45415507001576
20
60.073909311893274
30
0
0
SPLINE
5
525
100
AcDbEntity
8
0
100
AcDbSpline
70
4
71
3
72
8
73
4
74
0
42
0.000000001
43
0.0000000001
44
0.0000000001
40
-1
40
-1
40
-1
40
-1
40
0
40
0
40
0
40
0
41
1
41
1
41
1
41
1
10
644.51795325897342
20
83.801029658255572
30
0
10
645.19047947120612
20
83.623441827940638
30
0
10
645.59163694035169
20
82.934264115197678
30
0
10
645.41400684734504
20
82.261780165656688
30
0
0
SPLINE
5
526
100
AcDbEntity
8
0
100
AcDbSpline
70
4
71
3
72
8
73
4
74
0
42
0.000000001
43
0.0000000001
44
0.0000000001
40
-1
40
-1
40
-1
40
-1
40
0
40
0
40
0
40
0
41
1
41
1
41
1
41
1
10
653.81363228747682
20
106.15604945749631
30
0
10
659.88842932261241
20
109.06494826110105
30
0
10
668.03608459512452
20
104.55116600476437
30
0
10
665.71751106849229
20
99.221671536883562
30
0
0
SPLINE
5
527
100
AcDbEntity
8
0
100
AcDbSpline
70
4
71
3
72
8
73
4
74
0
42
0.000000001
43
0.0000000001
44
0.0000000001
40
0
40
0
40
0
40
0
40
1
40
1
40
1
40
1
41
1
41
1
41
1
41
1
10
650.50568914930909
20
65.447948656773718
30
0
10
654.62845698249623
20
66.981999838299515
30
0
10
656.67963445905639
20
67.674769879832724
30
0
10
658.99774309608028
20
68.466434619827865
30
0
0
SPLINE
5
528
100
AcDbEntity
8
0
100
AcDbSpline
70
4
71
3
72
8
73
4
74
0
42
0.000000001
43
0.0000000001
44
0.0000000001
40
-1
40
-1
40
-1
40
-1
40
0
40
0
40
0
40
0
41
1
41
1
41
1
41
1
10
645.41400684734504
20
82.261780165656688
30
0
10
644.58954625862918
20
79.95512471807011
30
0
10
643.86774174793209
20
77.913963499431162
30
0
10
642.27536805192869
20
73.813383579360305
30
0
0
SPLINE
5
529
100
AcDbEntity
8
0
100
AcDbSpline
70
4
71
3
72
8
73
4
74
0
42
0.000000001
43
0.0000000001
44
0.0000000001
40
0
40
0
40
0
40
0
40
1
40
1
40
1
40
1
41
1
41
1
41
1
41
1
10
651.91506539046622
20
45.285432774971923
30
0
10
651.34430773972781
20
44.887909897308305
30
0
10
650.55936276770512
20
45.028348821662547
30
0
10
650.16183989004151
20
45.599106472401196
30
0
0
SPLINE
5
530
100
AcDbEntity
8
0
100
AcDbSpline
70
4
71
3
72
8
73
4
74
0
42
0.000000001
43
0.0000000001
44
0.0000000001
40
0
40
0
40
0
40
0
40
1
40
1
40
1
40
1
41
1
41
1
41
1
41
1
10
665.71751106849229
20
25.444662764704589
30
0
10
668.03608459512452
20
20.115168296823711
30
0
10
659.88842932261241
20
15.601386040487064
30
0
10
653.81363228747682
20
18.510284844091771
30
0
0
SPLINE
5
531
100
AcDbEntity
8
0
100
AcDbSpline
70
4
71
3
72
8
73
4
74
0
42
0.000000001
43
0.0000000001
44
0.0000000001
40
0
40
0
40
0
40
0
40
1
40
1
40
1
40
1
41
1
41
1
41
1
41
1
10
610.81172389742915
20
44.102457772985844
30
0
10
607.14780210749029
20
49.003450810223406
30
0
10
599.02761758455074
20
45.639974495227023
30
0
10
601.54275489004885
20
40.876504256619839
30
0
0
SPLINE
5
532
100
AcDbEntity
8
0
100
AcDbSpline
70
4
71
3
72
8
73
4
74
0
42
0.000000001
43
0.0000000001
44
0.0000000001
40
-1
40
-1
40
-1
40
-1
40
0
40
0
40
0
40
0
41
1
41
1
41
1
41
1
10
628.49532160047727
20
45.599106472401196
30
0
10
628.09779872281365
20
45.028348821662547
30
0
10
627.31285375079096
20
44.887909897308305
30
0
10
626.74209610005255
20
45.285432774971923
30
0
0
SPLINE
5
533
100
AcDbEntity
8
0
100
AcDbSpline
70
4
71
3
72
8
73
4
74
0
42
0.000000001
43
0.0000000001
44
0.0000000001
40
-1
40
-1
40
-1
40
-1
40
0
40
0
40
0
40
0
41
1
41
1
41
1
41
1
10
652.22873908789552
20
78.286128762104454
30
0
10
650.66307541301512
20
76.402227019096671
30
0
10
649.28488903829589
20
74.732512597373074
30
0
10
646.382540951897
20
71.426936169937704
30
0
0
SPLINE
5
534
100
AcDbEntity
8
0
100
AcDbSpline
70
4
71
3
72
8
73
4
74
0
42
0.000000001
43
0.0000000001
44
0.0000000001
40
3.0428118382874706e-06
40
3.0428118382874706e-06
40
3.0428118382874706e-06
40
3.0428118382874706e-06
40
1
40
1
40
1
40
1
41
1
41
1
41
1
41
1
10
648.23115642993048
20
40.840410473122972
30
0
10
648.56885044713965
20
36.052367309657392
30
0
10
651.55842879517604
20
32.807714235704637
30
0
10
657.55929012306763
20
33.816310302963863
30
0
0
SPLINE
5
535
100
AcDbEntity
8
0
100
AcDbSpline
70
4
71
3
72
8
73
4
74
0
42
0.000000001
43
0.0000000001
44
0.0000000001
40
-1
40
-1
40
-1
40
-1
40
0
40
0
40
0
40
0
41
1
41
1
41
1
41
1
10
602.15471866514645
20
62.333146019448193
30
0
10
595.17030171761962
20
59.862088701341492
30
0
10
590.5974362183556
20
55.400331818426451
30
0
10
583.72480409024411
20
55.222110047736805
30
0
0
SPLINE
5
536
100
AcDbEntity
8
0
100
AcDbSpline
70
4
71
3
72
8
73
4
74
0
42
0.000000001
43
0.0000000001
44
0.0000000001
40
-1
40
-1
40
-1
40
-1
40
0
40
0
40
0
40
0
41
1
41
1
41
1
41
1
10
583.72480409024411
20
69.444181991159581
30
0
10
590.5974362183556
20
69.265960220470049
30
0
10
595.17034398031126
20
64.804203337554895
30
0
10
602.15471866514645
20
62.333146019448193
30
0
0
SPLINE
5
537
100
AcDbEntity
8
0
100
AcDbSpline
70
4
71
3
72
8
73
4
74
0
42
0.000000001
43
0.0000000001
44
0.0000000001
40
3.0428118364820368e-06
40
3.0428118364820368e-06
40
3.0428118364820368e-06
40
3.0428118364820368e-06
40
1
40
1
40
1
40
1
41
1
41
1
41
1
41
1
10
660.82133742293058
20
71.235742835465061
30
0
10
665.60938058639613
20
71.573436852674277
30
0
10
668.85403366034882
20
74.563015200710822
30
0
10
667.84543759308963
20
80.563876528602307
30
0
0
SPLINE
5
538
100
AcDbEntity
8
0
100
AcDbSpline
70
4
71
3
72
8
73
4
74
0
42
0.000000001
43
0.0000000001
44
0.0000000001
40
3.0096524486431166e-06
40
3.0096524486431166e-06
40
3.0096524486431166e-06
40
3.0096524486431166e-06
40
1
40
1
40
1
40
1
41
1
41
1
41
1
41
1
10
694.9323995535824
20
69.44422628685129
30
0
10
699.60106939455056
20
69.669378850732429
30
0
10
705.74345421094904
20
66.176588156185403
30
0
10
707.22124930222537
20
62.333188282139922
30
0
0
SPLINE
5
539
100
AcDbEntity
8
0
100
AcDbSpline
70
4
71
3
72
8
73
4
74
0
42
0.000000001
43
0.0000000001
44
0.0000000001
40
0
40
0
40
0
40
0
40
1
40
1
40
1
40
1
41
1
41
1
41
1
41
1
10
683.15146305196163
20
76.81821869301146
30
0
10
678.29860722051399
20
68.005095077772211
30
0
10
667.03348676110238
20
65.108325666671163
30
0
10
662.45415507001576
20
64.592424989694877
30
0
0
SPLINE
5
540
100
AcDbEntity
8
0
100
AcDbSpline
70
4
71
3
72
8
73
4
74
0
42
0.000000001
43
0.0000000001
44
0.0000000001
40
0
40
0
40
0
40
0
40
1
40
1
40
1
40
1
41
1
41
1
41
1
41
1
10
650.16183989004151
20
45.599106472401196
30
0
10
649.1884455759498
20
47.403850193947719
30
0
10
648.01126056271971
20
50.087784689897461
30
0
10
646.382540951897
20
53.897850867563477
30
0
0
SPLINE
5
541
100
AcDbEntity
8
0
100
AcDbSpline
70
4
71
3
72
8
73
4
74
0
42
0.000000001
43
0.0000000001
44
0.0000000001
40
0
40
0
40
0
40
0
40
1
40
1
40
1
40
1
41
1
41
1
41
1
41
1
10
667.84543759308963
20
80.563876528602307
30
0
10
671.50935938302848
20
75.662883491364738
30
0
10
679.62954390596792
20
79.026359806361086
30
0
10
677.11440660047003
20
83.789830044968198
30
0
0
SPLINE
5
542
100
AcDbEntity
8
0
100
AcDbSpline
70
4
71
3
72
8
73
4
74
0
42
0.000000001
43
0.0000000001
44
0.0000000001
40
-1
40
-1
40
-1
40
-1
40
0
40
0
40
0
40
0
41
1
41
1
41
1
41
1
10
626.74209610005255
20
45.285432774971923
30
0
10
626.17133844931402
20
45.682955652635471
30
0
10
626.03089952495975
20
46.467900624658185
30
0
10
626.42842240262337
20
47.038658275396621
30
0
0
SPLINE
5
543
100
AcDbEntity
8
0
100
AcDbSpline
70
4
71
3
72
8
73
4
74
0
42
0.000000001
43
0.0000000001
44
0.0000000001
40
-1
40
-1
40
-1
40
-1
40
0
40
0
40
0
40
0
41
1
41
1
41
1
41
1
10
571.4359121882934
20
62.333146019448193
30
0
10
572.91371172723268
20
66.176557460826444
30
0
10
579.05612906900876
20
69.669357612272904
30
0
10
583.72480409024411
20
69.444181991159581
30
0
0
SPLINE
5
544
100
AcDbEntity
8
0
100
AcDbSpline
70
4
71
3
72
8
73
4
74
0
42
0.000000001
43
0.0000000001
44
0.0000000001
40
0
40
0
40
0
40
0
40
1
40
1
40
1
40
1
41
1
41
1
41
1
41
1
10
635.67845772414421
20
82.826409726105965
30
0
10
635.97370488801391
20
80.797293374587326
30
0
10
636.15881547744266
20
77.872377010847131
30
0
10
636.38179343859008
20
73.734817235582256
30
0
0
SPLINE
5
545
100
AcDbEntity
8
0
100
AcDbSpline
70
4
71
3
72
8
73
4
74
0
42
0.000000001
43
0.0000000001
44
0.0000000001
40
-1
40
-1
40
-1
40
-1
40
0
40
0
40
0
40
0
41
1
41
1
41
1
41
1
10
628.15147234120968
20
65.447948656773718
30
0
10
624.0111232282959
20
65.612223739218791
30
0
10
621.08388241651494
20
65.755790102755114
30
0
10
619.05079337198117
20
66.022256373610873
30
0
0
SPLINE
5
546
100
AcDbEntity
8
0
100
AcDbSpline
70
4
71
3
72
8
73
4
74
0
42
0.000000001
43
0.0000000001
44
0.0000000001
40
-1
40
-1
40
-1
40
-1
40
0
40
0
40
0
40
0
41
1
41
1
41
1
41
1
10
634.13920823154535
20
41.602323723023638
30
0
10
633.46668201931277
20
41.779911553338636
30
0
10
633.0655245501672
20
42.469089266081461
30
0
10
633.24315464317374
20
43.141573215622522
30
0
0
SPLINE
5
547
100
AcDbEntity
8
0
100
AcDbSpline
70
4
71
3
72
8
73
4
74
0
42
0.000000001
43
0.0000000001
44
0.0000000001
40
-1
40
-1
40
-1
40
-1
40
-3.0428118360019444e-06
40
-3.0428118360019444e-06
40
-3.0428118360019444e-06
40
-3.0428118360019444e-06
41
1
41
1
41
1
41
1
10
610.81172389742915
20
80.563876528602307
30
0
10
609.80312783016996
20
74.563015200710822
30
0
10
613.04778090412265
20
71.573436852674206
30
0
10
617.83582406758831
20
71.235742835465061
30
0
0
SPLINE
5
548
100
AcDbEntity
8
0
100
AcDbSpline
70
4
71
3
72
8
73
4
74
0
42
0.000000001
43
0.0000000001
44
0.0000000001
40
-1
40
-1
40
-1
40
-1
40
0
40
0
40
0
40
0
41
1
41
1
41
1
41
1
10
642.27536805192869
20
73.813383579360305
30
0
10
642.49834601307612
20
77.950943354625224
30
0
10
642.68345660250486
20
80.875859718365462
30
0
10
642.97870376637445
20
82.904976069883986
30
0
0
SPLINE
5
549
100
AcDbEntity
8
0
100
AcDbSpline
70
4
71
3
72
8
73
4
74
0
42
0.000000001
43
0.0000000001
44
0.0000000001
40
0
40
0
40
0
40
0
40
1
40
1
40
1
40
1
41
1
41
1
41
1
41
1
10
595.50569843855715
20
47.84811560857662
30
0
10
600.35855427000479
20
56.661239223815869
30
0
10
611.62367472941651
20
59.558008634916959
30
0
10
616.20300642050302
20
60.073909311893274
30
0
0
SPLINE
5
550
100
AcDbEntity
8
0
100
AcDbSpline
70
4
71
3
72
8
73
4
74
0
42
0.000000001
43
0.0000000001
44
0.0000000001
40
0
40
0
40
0
40
0
40
1
40
1
40
1
40
1
41
1
41
1
41
1
41
1
10
660.52414473041745
20
67.548658007948035
30
0
10
660.69222345511105
20
66.873722822291313
30
0
10
660.28130330419435
20
66.190335098304445
30
0
10
659.6063681185376
20
66.022256373610873
30
0
0
SPLINE
5
551
100
AcDbEntity
8
0
100
AcDbSpline
70
4
71
3
72
8
73
4
74
0
42
0.000000001
43
0.0000000001
44
0.0000000001
40
-1
40
-1
40
-1
40
-1
40
0
40
0
40
0
40
0
41
1
41
1
41
1
41
1
10
616.20300642050302
20
64.592424989694877
30
0
10
611.62367472941651
20
65.108325666671163
30
0
10
600.35855427000479
20
68.005095077772211
30
0
10
595.50569843855715
20
76.81821869301146
30
0
0
SPLINE
5
552
100
AcDbEntity
8
0
100
AcDbSpline
70
4
71
3
72
8
73
4
74
0
42
0.000000001
43
0.0000000001
44
0.0000000001
40
-1
40
-1
40
-1
40
-1
40
0
40
0
40
0
40
0
41
1
41
1
41
1
41
1
10
633.24315464317374
20
43.141573215622522
30
0
10
634.06761523188959
20
45.448228663209207
30
0
10
634.78941974258657
20
47.489389881848112
30
0
10
636.38179343859008
20
51.589969801918905
30
0
0
SPLINE
5
553
100
AcDbEntity
8
0
100
AcDbSpline
70
4
71
3
72
8
73
4
74
0
42
0.000000001
43
0.0000000001
44
0.0000000001
40
-1
40
-1
40
-1
40
-1
40
0
40
0
40
0
40
0
41
1
41
1
41
1
41
1
10
651.91506539046622
20
80.039354262529301
30
0
10
652.48582304120475
20
79.641831384865725
30
0
10
652.62626196555914
20
78.856886412843011
30
0
10
652.22873908789552
20
78.286128762104454
30
0
0
SPLINE
5
554
100
AcDbEntity
8
0
100
AcDbSpline
70
4
71
3
72
8
73
4
74
0
42
0.000000001
43
0.0000000001
44
0.0000000001
40
-1
40
-1
40
-1
40
-1
40
0
40
0
40
0
40
0
41
1
41
1
41
1
41
1
10
646.382540951897
20
71.426936169937704
30
0
10
648.01126056271971
20
75.237002347603763
30
0
10
649.1884455759498
20
77.920936843553434
30
0
10
650.16183989004151
20
79.725680565100021
30
0
0
SPLINE
5
555
100
AcDbEntity
8
0
100
AcDbSpline
70
4
71
3
72
8
73
4
74
0
42
0.000000001
43
0.0000000001
44
0.0000000001
40
-1
40
-1
40
-1
40
-1
40
0
40
0
40
0
40
0
41
1
41
1
41
1
41
1
10
676.21708513134888
20
35.944236827560978
30
0
10
671.84885558505607
20
38.422816904781456
30
0
10
673.57207457440927
20
42.384268043939173
30
0
10
677.11440660047003
20
40.876504256619839
30
0
0
SPLINE
5
556
100
AcDbEntity
8
0
100
AcDbSpline
70
4
71
3
72
8
73
4
74
0
42
0.000000001
43
0.0000000001
44
0.0000000001
40
-1
40
-1
40
-1
40
-1
40
0
40
0
40
0
40
0
41
1
41
1
41
1
41
1
10
683.15146305196163
20
47.84811560857662
30
0
10
686.06036185556627
20
41.77331857344118
30
0
10
681.54657959922974
20
33.625663300928963
30
0
10
676.21708513134888
20
35.944236827560978
30
0
0
SPLINE
5
557
100
AcDbEntity
8
0
100
AcDbSpline
70
4
71
3
72
8
73
4
74
0
42
0.000000001
43
0.0000000001
44
0.0000000001
40
0
40
0
40
0
40
0
40
1
40
1
40
1
40
1
41
1
41
1
41
1
41
1
10
639.32855961391351
20
130.22583570775998
30
0
10
643.17201331798344
20
128.74799390612912
30
0
10
646.66481346942987
20
122.60561882704468
30
0
10
646.43959558562506
20
117.93694380580934
30
0
0
SPLINE
5
558
100
AcDbEntity
8
0
100
AcDbSpline
70
4
71
3
72
8
73
4
74
0
42
0.000000001
43
0.0000000001
44
0.0000000001
40
0
40
0
40
0
40
0
40
1
40
1
40
1
40
1
41
1
41
1
41
1
41
1
10
694.93235740027455
20
55.222152310428498
30
0
10
688.05972527216318
20
55.400374081118144
30
0
10
683.48685977289915
20
59.86213096403322
30
0
10
676.50248508806385
20
62.333188282139922
30
0
0
SPLINE
5
559
100
AcDbEntity
8
0
100
AcDbSpline
70
4
71
3
72
8
73
4
74
0
42
0.000000001
43
0.0000000001
44
0.0000000001
40
0
40
0
40
0
40
0
40
1
40
1
40
1
40
1
41
1
41
1
41
1
41
1
10
621.09787136745115
20
90.850023998624181
30
0
10
625.99886440468867
20
94.513945788563234
30
0
10
622.63538808969236
20
102.63413031150264
30
0
10
617.87191785108519
20
100.11899300600464
30
0
0
SPLINE
5
560
100
AcDbEntity
8
0
100
AcDbSpline
70
4
71
3
72
8
73
4
74
0
42
0.000000001
43
0.0000000001
44
0.0000000001
40
-1
40
-1
40
-1
40
-1
40
0
40
0
40
0
40
0
41
1
41
1
41
1
41
1
10
623.85073631348268
20
77.811053845262421
30
0
10
621.16756254598261
20
79.409471106171878
30
0
10
618.05745106743041
20
76.459028076674855
30
0
10
619.17753918424069
20
73.358129864902324
30
0
0
SPLINE
5
561
100
AcDbEntity
8
0
100
AcDbSpline
70
4
71
3
72
8
73
4
74
0
42
0.000000001
43
0.0000000001
44
0.0000000001
40
0
40
0
40
0
40
0
40
1
40
1
40
1
40
1
41
1
41
1
41
1
41
1
10
658.99774309608028
20
68.466434619827865
30
0
10
659.67267828173703
20
68.634513344521508
30
0
10
660.35610826841548
20
68.223593193604728
30
0
10
660.52414473041745
20
67.548658007948035
30
0
0
SPLINE
5
562
100
AcDbEntity
8
0
100
AcDbSpline
70
4
71
3
72
8
73
4
74
0
42
0.000000001
43
0.0000000001
44
0.0000000001
40
-1
40
-1
40
-1
40
-1
40
0
40
0
40
0
40
0
41
1
41
1
41
1
41
1
10
641.58783858416018
20
85.458741475550539
30
0
10
642.10373926113652
20
90.038073166636963
30
0
10
645.00050867223763
20
101.30319362604854
30
0
10
653.81363228747682
20
106.15604945749631
30
0
0
SPLINE
5
563
100
AcDbEntity
8
0
100
AcDbSpline
70
4
71
3
72
8
73
4
74
0
42
0.000000001
43
0.0000000001
44
0.0000000001
40
-1
40
-1
40
-1
40
-1
40
-0.13212983856500135
40
-0.13212983856500135
40
-0.13212983856500135
40
-0.13212983856500135
41
1
41
1
41
1
41
1
10
583.72480409024411
20
55.222110047736805
30
0
10
579.67300034587709
20
55.02665016656092
30
0
10
574.51120775590425
20
57.631596327923589
30
0
10
572.25185812670861
20
60.835774412868808
30
0
0
SPLINE
5
564
100
AcDbEntity
8
0
100
AcDbSpline
70
4
71
3
72
8
73
4
74
0
42
0.000000001
43
0.0000000001
44
0.0000000001
40
-1
40
-1
40
-1
40
-1
40
0
40
0
40
0
40
0
41
1
41
1
41
1
41
1
10
658.99774309608028
20
56.858352417673395
30
0
10
656.67963445905639
20
57.650017157668429
30
0
10
654.62845698249623
20
58.342787199201638
30
0
10
650.50568914930909
20
59.876838380727442
30
0
0
SPLINE
5
565
100
AcDbEntity
8
0
100
AcDbSpline
70
4
71
3
72
8
73
4
74
0
42
0.000000001
43
0.0000000001
44
0.0000000001
40
0
40
0
40
0
40
0
40
1
40
1
40
1
40
1
41
1
41
1
41
1
41
1
10
626.42842240262337
20
78.286128762104454
30
0
10
626.03089952495975
20
78.856886412843011
30
0
10
626.17133844931402
20
79.641831384865725
30
0
10
626.74209610005255
20
80.039354262529301
30
0
0
SPLINE
5
566
100
AcDbEntity
8
0
100
AcDbSpline
70
4
71
3
72
8
73
4
74
0
42
0.000000001
43
0.0000000001
44
0.0000000001
40
0
40
0
40
0
40
0
40
1
40
1
40
1
40
1
41
1
41
1
41
1
41
1
10
616.20300642050302
20
60.073909311893274
30
0
10
614.24197526523312
20
57.633323394466487
30
0
10
615.38560370129278
20
54.579040931584473
30
0
10
617.83582551241579
20
53.430594548676709
30
0
0
SPLINE
5
567
100
AcDbEntity
8
0
100
AcDbSpline
70
4
71
3
72
8
73
4
74
0
42
0.000000001
43
0.0000000001
44
0.0000000001
40
-1
40
-1
40
-1
40
-1
40
0
40
0
40
0
40
0
41
1
41
1
41
1
41
1
10
659.6063681185376
20
59.302530663890423
30
0
10
660.28130330419435
20
59.13445193919685
30
0
10
660.69222345511105
20
58.451064215209954
30
0
10
660.52414473041745
20
57.776129029553189
30
0
0
SPLINE
5
568
100
AcDbEntity
8
0
100
AcDbSpline
70
4
71
3
72
8
73
4
74
0
42
0.000000001
43
0.0000000001
44
0.0000000001
40
3.0428118382582437e-06
40
3.0428118382582437e-06
40
3.0428118382582437e-06
40
3.0428118382582437e-06
40
1
40
1
40
1
40
1
41
1
41
1
41
1
41
1
10
630.4260050605883
20
83.825923828465179
30
0
10
630.08831104337924
20
88.613966991930766
30
0
10
627.09873269534273
20
91.858620065883485
30
0
10
621.09787136745115
20
90.850023998624181
30
0
0
SPLINE
5
569
100
AcDbEntity
8
0
100
AcDbSpline
70
4
71
3
72
8
73
4
74
0
42
0.000000001
43
0.0000000001
44
0.0000000001
40
-1
40
-1
40
-1
40
-1
40
0
40
0
40
0
40
0
41
1
41
1
41
1
41
1
10
659.47962230627809
20
51.308204436685827
30
0
10
666.36810294375869
20
45.135357956921318
30
0
10
661.74739607754645
20
43.959947976740708
30
0
10
664.5440874348194
20
37.117618198542495
30
0
0
SPLINE
5
570
100
AcDbEntity
8
0
100
AcDbSpline
70
4
71
3
72
8
73
4
74
0
42
0.000000001
43
0.0000000001
44
0.0000000001
40
-1
40
-1
40
-1
40
-1
40
0
40
0
40
0
40
0
41
1
41
1
41
1
41
1
10
632.27462053862178
20
53.897850867563477
30
0
10
630.64590092779906
20
50.087784689897461
30
0
10
629.46871591456909
20
47.403850193947719
30
0
10
628.49532160047727
20
45.599106472401196
30
0
0
SPLINE
5
571
100
AcDbEntity
8
0
100
AcDbSpline
70
4
71
3
72
8
73
4
74
0
42
0.000000001
43
0.0000000001
44
0.0000000001
40
0
40
0
40
0
40
0
40
1
40
1
40
1
40
1
41
1
41
1
41
1
41
1
10
664.5440874348194
20
87.548716103045592
30
0
10
661.74739607754645
20
80.706386324847415
30
0
10
666.36810294375869
20
79.530976344666755
30
0
10
659.47962230627809
20
73.358129864902324
30
0
0
SPLINE
5
572
100
AcDbEntity
8
0
100
AcDbSpline
70
4
71
3
72
8
73
4
74
0
42
0.000000001
43
0.0000000001
44
0.0000000001
40
0
40
0
40
0
40
0
40
1
40
1
40
1
40
1
41
1
41
1
41
1
41
1
10
632.27462053862178
20
71.426936169937704
30
0
10
629.37227245222289
20
74.732512597373074
30
0
10
627.99408607750365
20
76.402227019096671
30
0
10
626.42842240262337
20
78.286128762104454
30
0
0
SPLINE
5
573
100
AcDbEntity
8
0
100
AcDbSpline
70
4
71
3
72
8
73
4
74
0
42
0.000000001
43
0.0000000001
44
0.0000000001
40
-1
40
-1
40
-1
40
-1
40
0
40
0
40
0
40
0
41
1
41
1
41
1
41
1
10
602.44007635916989
20
88.722097474027095
30
0
10
606.8083059054627
20
86.243517396806652
30
0
10
605.08508691610962
20
82.282066257648907
30
0
10
601.54275489004885
20
83.789830044968198
30
0
0
SPLINE
5
574
100
AcDbEntity
8
0
100
AcDbSpline
70
4
71
3
72
8
73
4
74
0
42
0.000000001
43
0.0000000001
44
0.0000000001
40
-1
40
-1
40
-1
40
-1
40
0
40
0
40
0
40
0
41
1
41
1
41
1
41
1
10
595.50569843855715
20
76.81821869301146
30
0
10
592.59679963495239
20
82.893015728146963
30
0
10
597.11058189128903
20
91.040671000659188
30
0
10
602.44007635916989
20
88.722097474027095
30
0
0
SPLINE
5
575
100
AcDbEntity
8
0
100
AcDbSpline
70
4
71
3
72
8
73
4
74
0
42
0.000000001
43
0.0000000001
44
0.0000000001
40
0
40
0
40
0
40
0
40
1
40
1
40
1
40
1
41
1
41
1
41
1
41
1
10
662.45415507001576
20
64.592424989694877
30
0
10
664.41518622528565
20
67.033010907121593
30
0
10
663.27155778922599
20
70.087293370003607
30
0
10
660.82133597810298
20
71.235739752911343
30
0
0
SPLINE
5
576
100
AcDbEntity
8
0
100
AcDbSpline
70
4
71
3
72
8
73
4
74
0
42
0.000000001
43
0.0000000001
44
0.0000000001
40
0
40
0
40
0
40
0
40
1
40
1
40
1
40
1
41
1
41
1
41
1
41
1
10
646.382540951897
20
53.897850867563477
30
0
10
649.28488903829589
20
50.592274440128193
30
0
10
650.66307541301512
20
48.922560018404475
30
0
10
652.22873908789552
20
47.038658275396621
30
0
0
SPLINE
5
577
100
AcDbEntity
8
0
100
AcDbSpline
70
4
71
3
72
8
73
4
74
0
42
0.000000001
43
0.0000000001
44
0.0000000001
40
-1
40
-1
40
-1
40
-1
40
0
40
0
40
0
40
0
41
1
41
1
41
1
41
1
10
630.4260081431421
20
40.840411917950412
30
0
10
631.57445452604986
20
38.390190106827404
30
0
10
634.62873698893191
20
37.246561670767733
30
0
10
637.06932290635859
20
39.207592826037576
30
0
0
SPLINE
5
578
100
AcDbEntity
8
0
100
AcDbSpline
70
4
71
3
72
8
73
4
74
0
42
0.000000001
43
0.0000000001
44
0.0000000001
40
0
40
0
40
0
40
0
40
1
40
1
40
1
40
1
41
1
41
1
41
1
41
1
10
617.87191785108519
20
100.11899300600464
30
0
10
619.37968163840446
20
96.576660979943867
30
0
10
615.41823049924676
20
94.853441990590852
30
0
10
612.93965042202638
20
99.221671536883562
30
0
0
SPLINE
5
579
100
AcDbEntity
8
0
100
AcDbSpline
70
4
71
3
72
8
73
4
74
0
42
0.000000001
43
0.0000000001
44
0.0000000001
40
0
40
0
40
0
40
0
40
1
40
1
40
1
40
1
41
1
41
1
41
1
41
1
10
619.05079337198117
20
59.302530663890423
30
0
10
621.08388241651494
20
59.56899693474611
30
0
10
624.0111232282959
20
59.712563298282397
30
0
10
628.15147234120968
20
59.876838380727442
30
0
0
SPLINE
5
580
100
AcDbEntity
8
0
100
AcDbSpline
70
4
71
3
72
8
73
4
74
0
42
0.000000001
43
0.0000000001
44
0.0000000001
40
-1
40
-1
40
-1
40
-1
40
-3.0428118399988375e-06
40
-3.0428118399988375e-06
40
-3.0428118399988375e-06
40
-3.0428118399988375e-06
41
1
41
1
41
1
41
1
10
667.84543759308963
20
44.102457772985844
30
0
10
668.8540336603487
20
50.103319100877286
30
0
10
665.60938058639613
20
53.092897448913874
30
0
10
660.82133742293058
20
53.430591466122905
30
0
0
SPLINE
5
581
100
AcDbEntity
8
0
100
AcDbSpline
70
4
71
3
72
8
73
4
74
0
42
0.000000001
43
0.0000000001
44
0.0000000001
40
-1
40
-1
40
-1
40
-1
40
0
40
0
40
0
40
0
41
1
41
1
41
1
41
1
10
617.87191785108519
20
24.547341295583465
30
0
10
622.63538808969236
20
22.032203990085399
30
0
10
625.99886440468867
20
30.152388513024917
30
0
10
621.09787136745115
20
33.816310302963863
30
0
0
SPLINE
5
582
100
AcDbEntity
8
0
100
AcDbSpline
70
4
71
3
72
8
73
4
74
0
42
0.000000001
43
0.0000000001
44
0.0000000001
40
0
40
0
40
0
40
0
40
1
40
1
40
1
40
1
41
1
41
1
41
1
41
1
10
650.35350119667601
20
82.484250974504391
30
0
10
656.52634767644042
20
89.372689349293211
30
0
10
657.70179991931275
20
84.752024745772729
30
0
10
664.5440874348194
20
87.548716103045592
30
0
0
SPLINE
5
583
100
AcDbEntity
8
0
100
AcDbSpline
70
4
71
3
72
8
73
4
74
0
42
0.000000001
43
0.0000000001
44
0.0000000001
40
-1
40
-1
40
-1
40
-1
40
0
40
0
40
0
40
0
41
1
41
1
41
1
41
1
10
635.67845772414421
20
42.498377311395217
30
0
10
635.50082763113767
20
41.825893361854263
30
0
10
634.81169218108641
20
41.424693630017018
30
0
10
634.13920823154535
20
41.602323723023638
30
0
0
SPLINE
5
584
100
AcDbEntity
8
0
100
AcDbSpline
70
4
71
3
72
8
73
4
74
0
42
0.000000001
43
0.0000000001
44
0.0000000001
40
-1
40
-1
40
-1
40
-1
40
0
40
0
40
0
40
0
41
1
41
1
41
1
41
1
10
619.65941839443849
20
68.466434619827865
30
0
10
621.97752703146239
20
67.674769879832724
30
0
10
624.02870450802243
20
66.981999838299515
30
0
10
628.15147234120968
20
65.447948656773718
30
0
0
SPLINE
5
585
100
AcDbEntity
8
0
100
AcDbSpline
70
4
71
3
72
8
73
4
74
0
42
0.000000001
43
0.0000000001
44
0.0000000001
40
0
40
0
40
0
40
0
40
1
40
1
40
1
40
1
41
1
41
1
41
1
41
1
10
624.84352920304195
20
106.15604945749631
30
0
10
633.65665281828126
20
101.30319362604854
30
0
10
636.55342222938236
20
90.038073166636963
30
0
10
637.06932290635859
20
85.458741475550539
30
0
0
SPLINE
5
586
100
AcDbEntity
8
0
100
AcDbSpline
70
4
71
3
72
8
73
4
74
0
42
0.000000001
43
0.0000000001
44
0.0000000001
40
-1
40
-1
40
-1
40
-1
40
0
40
0
40
0
40
0
41
1
41
1
41
1
41
1
10
642.97870376637445
20
82.904976069883986
30
0
10
643.15633385938111
20
83.577460019425047
30
0
10
643.84546930943225
20
83.9786597512622
30
0
10
644.51795325897342
20
83.801029658255572
30
0
0
SPLINE
5
587
100
AcDbEntity
8
0
100
AcDbSpline
70
4
71
3
72
8
73
4
74
0
42
0.000000001
43
0.0000000001
44
0.0000000001
40
0
40
0
40
0
40
0
40
1
40
1
40
1
40
1
41
1
41
1
41
1
41
1
10
637.06932290635859
20
85.458741475550539
30
0
10
634.62873698893191
20
87.419772630820233
30
0
10
631.57445452604986
20
86.276144194760747
30
0
10
630.4260081431421
20
83.825922383637703
30
0
0
SPLINE
5
588
100
AcDbEntity
8
0
100
AcDbSpline
70
4
71
3
72
8
73
4
74
0
42
0.000000001
43
0.0000000001
44
0.0000000001
40
0
40
0
40
0
40
0
40
1
40
1
40
1
40
1
41
1
41
1
41
1
41
1
10
652.22873908789552
20
47.038658275396621
30
0
10
652.62626196555914
20
46.467900624658185
30
0
10
652.48582304120475
20
45.682955652635471
30
0
10
651.91506539046622
20
45.285432774971923
30
0
0
SPLINE
5
589
100
AcDbEntity
8
0
100
AcDbSpline
70
4
71
3
72
8
73
4
74
0
42
0.000000001
43
0.0000000001
44
0.0000000001
40
-1
40
-1
40
-1
40
-1
40
0
40
0
40
0
40
0
41
1
41
1
41
1
41
1
10
614.11307405569949
20
87.548716103045592
30
0
10
620.95536157120603
20
84.752024745772729
30
0
10
622.13081381407835
20
89.372689349293211
30
0
10
628.30366029384277
20
82.484250974504391
30
0
0
SPLINE
5
590
100
AcDbEntity
8
0
100
AcDbSpline
70
4
71
3
72
8
73
4
74
0
42
0.000000001
43
0.0000000001
44
0.0000000001
40
-1
40
-1
40
-1
40
-1
40
0
40
0
40
0
40
0
41
1
41
1
41
1
41
1
10
601.54275489004885
20
83.789830044968198
30
0
10
599.02761758455074
20
79.026359806361086
30
0
10
607.14780210749029
20
75.662883491364738
30
0
10
610.81172389742915
20
80.563876528602307
30
0
0
SPLINE
5
591
100
AcDbEntity
8
0
100
AcDbSpline
70
4
71
3
72
8
73
4
74
0
42
0.000000001
43
0.0000000001
44
0.0000000001
40
0
40
0
40
0
40
0
40
1
40
1
40
1
40
1
41
1
41
1
41
1
41
1
10
633.24315464317374
20
82.183213821878695
30
0
10
633.0655245501672
20
82.855697771419699
30
0
10
633.46668201931277
20
83.544875484162588
30
0
10
634.13920823154535
20
83.722463314477551
30
0
0
SPLINE
5
592
100
AcDbEntity
8
0
100
AcDbSpline
70
4
71
3
72
8
73
4
74
0
42
0.000000001
43
0.0000000001
44
0.0000000001
40
0
40
0
40
0
40
0
40
1
40
1
40
1
40
1
41
1
41
1
41
1
41
1
10
628.49532160047727
20
79.725680565100021
30
0
10
629.46871591456909
20
77.920936843553434
30
0
10
630.64590092779906
20
75.237002347603763
30
0
10
632.27462053862178
20
71.426936169937704
30
0
0
SPLINE
5
593
100
AcDbEntity
8
0
100
AcDbSpline
70
4
71
3
72
8
73
4
74
0
42
0.000000001
43
0.0000000001
44
0.0000000001
40
-1
40
-1
40
-1
40
-1
40
0
40
0
40
0
40
0
41
1
41
1
41
1
41
1
10
628.30366029384277
20
82.484250974504391
30
0
10
625.20280434476194
20
83.604339091314728
30
0
10
622.25231905257328
20
80.494227612762444
30
0
10
623.85073631348268
20
77.811053845262421
30
0
0
SPLINE
5
594
100
AcDbEntity
8
0
100
AcDbSpline
70
4
71
3
72
8
73
4
74
0
42
0.000000001
43
0.0000000001
44
0.0000000001
40
0
40
0
40
0
40
0
40
1
40
1
40
1
40
1
41
1
41
1
41
1
41
1
10
626.74209610005255
20
80.039354262529301
30
0
10
627.31285375079096
20
80.436877140192848
30
0
10
628.09779872281365
20
80.296438215838577
30
0
10
628.49532160047727
20
79.725680565100021
30
0
0
SPLINE
5
595
100
AcDbEntity
8
0
100
AcDbSpline
70
4
71
3
72
8
73
4
74
0
42
0.000000001
43
0.0000000001
44
0.0000000001
40
0
40
0
40
0
40
0
40
1
40
1
40
1
40
1
41
1
41
1
41
1
41
1
10
619.65941839443849
20
56.858352417673395
30
0
10
618.98448320878174
20
56.690273692979716
30
0
10
618.30105322210329
20
57.101193843896461
30
0
10
618.13301676010133
20
57.776129029553189
30
0
0
SPLINE
5
596
100
AcDbEntity
8
0
100
AcDbSpline
70
4
71
3
72
8
73
4
74
0
42
0.000000001
43
0.0000000001
44
0.0000000001
40
-0.13212983856494545
40
-0.13212983856494545
40
-0.13212983856494545
40
-0.13212983856494545
40
0
40
0
40
0
40
0
41
1
41
1
41
1
41
1
10
572.25185812670816
20
60.835774412869483
30
0
10
571.90788098008784
20
61.323597997444814
30
0
10
571.63117918696753
20
61.825311101997613
30
0
10
571.4359121882934
20
62.333146019448193
30
0
0
SPLINE
5
597
100
AcDbEntity
8
0
100
AcDbSpline
70
4
71
3
72
8
73
4
74
0
42
0.000000001
43
0.0000000001
44
0.0000000001
40
0
40
0
40
0
40
0
40
1
40
1
40
1
40
1
41
1
41
1
41
1
41
1
10
646.43959558562506
20
117.93694380580934
30
0
10
646.26137381493527
20
111.0643116776977
30
0
10
641.79961693202029
20
106.49144617843383
30
0
10
639.32855961391351
20
99.507071493598644
30
0
0
SPLINE
5
598
100
AcDbEntity
8
0
100
AcDbSpline
70
4
71
3
72
8
73
4
74
0
42
0.000000001
43
0.0000000001
44
0.0000000001
40
0
40
0
40
0
40
0
40
1
40
1
40
1
40
1
41
1
41
1
41
1
41
1
10
612.93965042202638
20
99.221671536883562
30
0
10
610.62107689539425
20
104.55116600476437
30
0
10
618.76873216790648
20
109.06494826110105
30
0
10
624.84352920304195
20
106.15604945749631
30
0
0
SPLINE
5
599
100
AcDbEntity
8
0
100
AcDbSpline
70
4
71
3
72
8
73
4
74
0
42
0.000000001
43
0.0000000001
44
0.0000000001
40
0
40
0
40
0
40
0
40
1
40
1
40
1
40
1
41
1
41
1
41
1
41
1
10
654.80642517703609
20
77.811053845262421
30
0
10
656.4048424379456
20
80.494227612762444
30
0
10
653.45435714575683
20
83.604339091314728
30
0
10
650.35350119667601
20
82.484250974504391
30
0
0
SPLINE
5
600
100
AcDbEntity
8
0
100
AcDbSpline
70
4
71
3
72
8
73
4
74
0
42
0.000000001
43
0.0000000001
44
0.0000000001
40
-1
40
-1
40
-1
40
-1
40
0
40
0
40
0
40
0
41
1
41
1
41
1
41
1
10
660.52414473041745
20
57.776129029553189
30
0
10
660.35610826841548
20
57.101193843896461
30
0
10
659.67267828173703
20
56.690273692979716
30
0
10
658.99774309608028
20
56.858352417673395
30
0
0
SPLINE
5
601
100
AcDbEntity
8
0
100
AcDbSpline
70
4
71
3
72
8
73
4
74
0
42
0.000000001
43
0.0000000001
44
0.0000000001
40
-1
40
-1
40
-1
40
-1
40
0
40
0
40
0
40
0
41
1
41
1
41
1
41
1
10
617.83582551241579
20
71.235739752911343
30
0
10
615.38560370129278
20
70.087293370003607
30
0
10
614.24197526523312
20
67.033010907121593
30
0
10
616.20300642050302
20
64.592424989694877
30
0
0
SPLINE
5
602
100
AcDbEntity
8
0
100
AcDbSpline
70
4
71
3
72
8
73
4
74
0
42
0.000000001
43
0.0000000001
44
0.0000000001
40
0
40
0
40
0
40
0
40
1
40
1
40
1
40
1
41
1
41
1
41
1
41
1
10
659.6063681185376
20
66.022256373610873
30
0
10
657.57327907400395
20
65.755790102755114
30
0
10
654.64603826222287
20
65.612223739218791
30
0
10
650.50568914930909
20
65.447948656773718
30
0
0
SPLINE
5
603
100
AcDbEntity
8
0
100
AcDbSpline
70
4
71
3
72
8
73
4
74
0
42
0.000000001
43
0.0000000001
44
0.0000000001
40
-1
40
-1
40
-1
40
-1
40
0
40
0
40
0
40
0
41
1
41
1
41
1
41
1
10
650.35350119667601
20
42.182083327083717
30
0
10
653.45435714575683
20
41.061995210273459
30
0
10
656.4048424379456
20
44.172106688825714
30
0
10
654.80642517703609
20
46.855280456325623
30
0
0
SPLINE
5
604
100
AcDbEntity
8
0
100
AcDbSpline
70
4
71
3
72
8
73
4
74
0
42
0.000000001
43
0.0000000001
44
0.0000000001
40
-1
40
-1
40
-1
40
-1
40
0
40
0
40
0
40
0
41
1
41
1
41
1
41
1
10
619.05079337198117
20
66.022256373610873
30
0
10
618.37585818632442
20
66.190335098304445
30
0
10
617.96493803540773
20
66.873722822291313
30
0
10
618.13301676010133
20
67.548658007948035
30
0
0
SPLINE
5
605
100
AcDbEntity
8
0
100
AcDbSpline
70
4
71
3
72
8
73
4
74
0
42
0.000000001
43
0.0000000001
44
0.0000000001
40
3.0428118371529822e-06
40
3.0428118371529822e-06
40
3.0428118371529822e-06
40
3.0428118371529822e-06
40
1
40
1
40
1
40
1
41
1
41
1
41
1
41
1
10
617.83582406758831
20
53.43059146612287
30
0
10
613.04778090412265
20
53.092897448913945
30
0
10
609.80312783016996
20
50.103319100877286
30
0
10
610.81172389742915
20
44.102457772985844
30
0
0
SPLINE
5
606
100
AcDbEntity
8
0
100
AcDbSpline
70
4
71
3
72
8
73
4
74
0
42
0.000000001
43
0.0000000001
44
0.0000000001
40
-1
40
-1
40
-1
40
-1
40
0
40
0
40
0
40
0
41
1
41
1
41
1
41
1
10
665.71751106849229
20
99.221671536883562
30
0
10
663.23893099127201
20
94.853441990590852
30
0
10
659.27747985211431
20
96.576660979943867
30
0
10
660.78524363943359
20
100.11899300600464
30
0
0
SPLINE
5
607
100
AcDbEntity
8
0
100
AcDbSpline
70
4
71
3
72
8
73
4
74
0
42
0.000000001
43
0.0000000001
44
0.0000000001
40
-1
40
-1
40
-1
40
-1
40
0
40
0
40
0
40
0
41
1
41
1
41
1
41
1
10
650.16183989004151
20
79.725680565100021
30
0
10
650.55936276770512
20
80.296438215838577
30
0
10
651.34430773972781
20
80.436877140192848
30
0
10
651.91506539046622
20
80.039354262529301
30
0
0
SPLINE
5
608
100
AcDbEntity
8
0
100
AcDbSpline
70
4
71
3
72
8
73
4
74
0
42
0.000000001
43
0.0000000001
44
0.0000000001
40
0
40
0
40
0
40
0
40
1
40
1
40
1
40
1
41
1
41
1
41
1
41
1
10
601.54275489004885
20
40.876504256619839
30
0
10
605.08508691610962
20
42.384268043939173
30
0
10
606.8083059054627
20
38.422816904781456
30
0
10
602.44007635916989
20
35.944236827560978
30
0
0
SPLINE
5
609
100
AcDbEntity
8
0
100
AcDbSpline
70
4
71
3
72
8
73
4
74
0
42
0.000000001
43
0.0000000001
44
0.0000000001
40
-1
40
-1
40
-1
40
-1
40
0
40
0
40
0
40
0
41
1
41
1
41
1
41
1
10
624.84352920304195
20
18.510284844091771
30
0
10
618.76873216790648
20
15.601386040487064
30
0
10
610.62107689539425
20
20.115168296823711
30
0
10
612.93965042202638
20
25.444662764704589
30
0
0
SPLINE
5
610
100
AcDbEntity
8
0
100
AcDbSpline
70
4
71
3
72
8
73
4
74
0
42
0.000000001
43
0.0000000001
44
0.0000000001
40
-1
40
-1
40
-1
40
-1
40
0
40
0
40
0
40
0
41
1
41
1
41
1
41
1
10
626.42842240262337
20
47.038658275396621
30
0
10
627.99408607750365
20
48.922560018404475
30
0
10
629.37227245222289
20
50.592274440128193
30
0
10
632.27462053862178
20
53.897850867563477
30
0
0
SPLINE
5
611
100
AcDbEntity
8
0
100
AcDbSpline
70
4
71
3
72
8
73
4
74
0
42
0.000000001
43
0.0000000001
44
0.0000000001
40
0
40
0
40
0
40
0
40
1
40
1
40
1
40
1
41
1
41
1
41
1
41
1
10
676.21708513134888
20
88.722097474027095
30
0
10
681.54657959922974
20
91.040671000659188
30
0
10
686.06036185556627
20
82.893015728146963
30
0
10
683.15146305196163
20
76.81821869301146
30
0
0
LINE
5
612
100
AcDbEntity
8
0
100
AcDbLine
10
694.93235745307061
20
69.444223159205507
30
0
11
694.9323996026053
21
69.444225270330406
31
0
0
SPLINE
5
613
100
AcDbEntity
8
0
100
AcDbSpline
70
4
71
3
72
8
73
4
74
0
42
0.000000001
43
0.0000000001
44
0.0000000001
40
-1
40
-1
40
-1
40
-1
40
0
40
0
40
0
40
0
41
1
41
1
41
1
41
1
10
677.11440660047003
20
40.876504256619839
30
0
10
679.62954390596792
20
45.639974495227023
30
0
10
671.50935938302848
20
49.003450810223406
30
0
10
667.84543759308963
20
44.102457772985844
30
0
0
SPLINE
5
614
100
AcDbEntity
8
0
100
AcDbSpline
70
4
71
3
72
8
73
4
74
0
42
0.000000001
43
0.0000000001
44
0.0000000001
40
0
40
0
40
0
40
0
40
1
40
1
40
1
40
1
41
1
41
1
41
1
41
1
10
645.41400684734504
20
43.0630068718445
30
0
10
645.59163694035169
20
42.39052292230344
30
0
10
645.19047947120612
20
41.701345209560543
30
0
10
644.51795325897342
20
41.523757379245616
30
0
0
SPLINE
5
615
100
AcDbEntity
8
0
100
AcDbSpline
70
4
71
3
72
8
73
4
74
0
42
0.000000001
43
0.0000000001
44
0.0000000001
40
-1
40
-1
40
-1
40
-1
40
0
40
0
40
0
40
0
41
1
41
1
41
1
41
1
10
618.13301676010133
20
67.548658007948035
30
0
10
618.30105322210329
20
68.223593193604728
30
0
10
618.98448320878174
20
68.634513344521508
30
0
10
619.65941839443849
20
68.466434619827865
30
0
0
SPLINE
5
616
100
AcDbEntity
8
0
100
AcDbSpline
70
4
71
3
72
8
73
4
74
0
42
0.000000001
43
0.0000000001
44
0.0000000001
40
0
40
0
40
0
40
0
40
1
40
1
40
1
40
1
41
1
41
1
41
1
41
1
10
628.15147234120968
20
59.876838380727442
30
0
10
624.02870450802243
20
58.342787199201638
30
0
10
621.97752703146239
20
57.650017157668429
30
0
10
619.65941839443849
20
56.858352417673395
30
0
0
SPLINE
5
617
100
AcDbEntity
8
0
100
AcDbSpline
70
4
71
3
72
8
73
4
74
0
42
0.000000001
43
0.0000000001
44
0.0000000001
40
-1
40
-1
40
-1
40
-1
40
0
40
0
40
0
40
0
41
1
41
1
41
1
41
1
10
637.06932290635859
20
39.207592826037576
30
0
10
636.55342222938236
20
34.628261134951153
30
0
10
633.65665281828126
20
23.363140675539533
30
0
10
624.84352920304195
20
18.510284844091771
30
0
0
SPLINE
5
618
100
AcDbEntity
8
0
100
AcDbSpline
70
4
71
3
72
8
73
4
74
0
42
0.000000001
43
0.0000000001
44
0.0000000001
40
-1
40
-1
40
-1
40
-1
40
0
40
0
40
0
40
0
41
1
41
1
41
1
41
1
10
650.50568914930909
20
59.876838380727442
30
0
10
654.64603826222287
20
59.712563298282397
30
0
10
657.57327907400395
20
59.56899693474611
30
0
10
659.6063681185376
20
59.302530663890423
30
0
0
SPLINE
5
619
100
AcDbEntity
8
0
100
AcDbSpline
70
4
71
3
72
8
73
4
74
0
42
0.000000001
43
0.0000000001
44
0.0000000001
40
-1
40
-1
40
-1
40
-1
40
-3.0428118387697919e-06
40
-3.0428118387697919e-06
40
-3.0428118387697919e-06
40
-3.0428118387697919e-06
41
1
41
1
41
1
41
1
10
657.55929012306763
20
90.850023998624181
30
0
10
651.55842879517604
20
91.858620065883514
30
0
10
648.56885044713965
20
88.613966991930795
30
0
10
648.23115642993048
20
83.825923828465221
30
0
0
SPLINE
5
620
100
AcDbEntity
8
0
100
AcDbSpline
70
4
71
3
72
8
73
4
74
0
42
0.000000001
43
0.0000000001
44
0.0000000001
40
-1
40
-1
40
-1
40
-1
40
0
40
0
40
0
40
0
41
1
41
1
41
1
41
1
10
660.78524363943359
20
100.11899300600464
30
0
10
656.02177340082653
20
102.63413031150264
30
0
10
652.6582970858301
20
94.513945788563234
30
0
10
657.55929012306763
20
90.850023998624181
30
0
0
SPLINE
5
621
100
AcDbEntity
8
0
100
AcDbSpline
70
4
71
3
72
8
73
4
74
0
42
0.000000001
43
0.0000000001
44
0.0000000001
40
-1
40
-1
40
-1
40
-1
40
0
40
0
40
0
40
0
41
1
41
1
41
1
41
1
10
636.38179343859008
20
51.589969801918905
30
0
10
636.15881547744266
20
47.452410026654022
30
0
10
635.97370488801391
20
44.527493662913855
30
0
10
635.67845772414421
20
42.498377311395217
30
0
0
SPLINE
5
622
100
AcDbEntity
8
0
100
AcDbSpline
70
4
71
3
72
8
73
4
74
0
42
0.000000001
43
0.0000000001
44
0.0000000001
40
-1
40
-1
40
-1
40
-1
40
0
40
0
40
0
40
0
41
1
41
1
41
1
41
1
10
619.17753918424069
20
73.358129864902324
30
0
10
612.2890585467602
20
79.530976344666755
30
0
10
616.90976541297243
20
80.706386324847415
30
0
10
614.11307405569949
20
87.548716103045592
30
0
0
SPLINE
5
623
100
AcDbEntity
8
0
100
AcDbSpline
70
4
71
3
72
8
73
4
74
0
42
0.000000001
43
0.0000000001
44
0.0000000001
40
0
40
0
40
0
40
0
40
0.99999795275309478
40
0.99999795275309478
40
0.99999795275309478
40
0.99999795275309478
41
1
41
1
41
1
41
1
10
676.50248508806385
20
62.333188282139922
30
0
10
683.48684547415974
20
64.804240541382114
30
0
10
688.05974881110217
20
69.265984214534029
30
0
10
694.93235745307061
20
69.444223159205507
30
0
0
SPLINE
5
624
100
AcDbEntity
8
0
100
AcDbSpline
70
4
71
3
72
8
73
4
74
0
42
0.000000001
43
0.0000000001
44
0.0000000001
40
-1
40
-1
40
-1
40
-1
40
0
40
0
40
0
40
0
41
1
41
1
41
1
41
1
10
664.5440874348194
20
37.117618198542495
30
0
10
657.70179991931275
20
39.914309555815386
30
0
10
656.52634767644042
20
35.293644952294905
30
0
10
650.35350119667601
20
42.182083327083717
30
0
0
SPLINE
5
625
100
AcDbEntity
8
0
100
AcDbSpline
70
4
71
3
72
8
73
4
74
0
42
0.000000001
43
0.0000000001
44
0.0000000001
40
-1
40
-1
40
-1
40
-1
40
0
40
0
40
0
40
0
41
1
41
1
41
1
41
1
10
662.45415507001576
20
60.073909311893274
30
0
10
667.03348676110238
20
59.558008634916959
30
0
10
678.29860722051399
20
56.661239223815869
30
0
10
683.15146305196163
20
47.84811560857662
30
0
0
SPLINE
5
626
100
AcDbEntity
8
0
100
AcDbSpline
70
4
71
3
72
8
73
4
74
0
42
0.000000001
43
0.0000000001
44
0.0000000001
40
0
40
0
40
0
40
0
40
1
40
1
40
1
40
1
41
1
41
1
41
1
41
1
10
707.22124930222537
20
62.333188282139922
30
0
10
705.74340750059446
20
58.489734578070127
30
0
10
699.60103242151013
20
54.996934426623483
30
0
10
694.93235740027455
20
55.222152310428498
30
0
0
SPLINE
5
627
100
AcDbEntity
8
0
100
AcDbSpline
70
4
71
3
72
8
73
4
74
0
42
0.000000001
43
0.0000000001
44
0.0000000001
40
-1
40
-1
40
-1
40
-1
40
0
40
0
40
0
40
0
41
1
41
1
41
1
41
1
10
612.93965042202638
20
25.444662764704589
30
0
10
615.41823049924676
20
29.812892310997334
30
0
10
619.37968163840446
20
28.089673321644284
30
0
10
617.87191785108519
20
24.547341295583465
30
0
0
SPLINE
5
628
100
AcDbEntity
8
0
100
AcDbSpline
70
4
71
3
72
8
73
4
74
0
42
0.000000001
43
0.0000000001
44
0.0000000001
40
-1
40
-1
40
-1
40
-1
40
0
40
0
40
0
40
0
41
1
41
1
41
1
41
1
10
909.150035739136
20
571.41890184211729
30
0
10
910.13593951416033
20
581.84178410034178
30
0
10
906.95275706787129
20
598.05694245567327
30
0
10
893.45030217285171
20
601.87955127906798
30
0
0
SPLINE
5
629
100
AcDbEntity
8
0
100
AcDbSpline
70
4
71
3
72
8
73
4
74
0
42
0.000000001
43
0.0000000001
44
0.0000000001
40
0
40
0
40
0
40
0
40
1
40
1
40
1
40
1
41
1
41
1
41
1
41
1
10
743.55743634948738
20
301.94263976135238
30
0
10
752.08657736816406
20
297.1853109573363
30
0
10
752.41383529968277
20
286.10790745849602
30
0
10
743.97634973297113
20
281.99737231445306
30
0
0
SPLINE
5
630
100
AcDbEntity
8
0
100
AcDbSpline
70
4
71
3
72
8
73
4
74
0
42
0.000000001
43
0.0000000001
44
0.0000000001
40
0
40
0
40
0
40
0
40
1
40
1
40
1
40
1
41
1
41
1
41
1
41
1
10
726.85755917968766
20
290.82025819396961
30
0
10
719.58459904327401
20
290.17727185974115
30
0
10
714.57499726562503
20
282.02718561096185
30
0
10
720.72004252777106
20
270.03466878356926
30
0
0
SPLINE
5
631
100
AcDbEntity
8
0
100
AcDbSpline
70
4
71
3
72
8
73
4
74
0
42
0.000000001
43
0.0000000001
44
0.0000000001
40
0
40
0
40
0
40
0
40
1
40
1
40
1
40
1
41
1
41
1
41
1
41
1
10
720.72004252777106
20
270.03466878356926
30
0
10
710.73600833740238
20
273.65425249938943
30
0
10
702.90291959991453
20
268.88588890380845
30
0
10
697.07029015197759
20
262.76947387084954
30
0
0
SPLINE
5
632
100
AcDbEntity
8
0
100
AcDbSpline
70
4
71
3
72
8
73
4
74
0
42
0.000000001
43
0.0000000001
44
0.0000000001
40
0
40
0
40
0
40
0
40
1
40
1
40
1
40
1
41
1
41
1
41
1
41
1
10
743.97634973297113
20
281.99737231445306
30
0
10
738.58601538085952
20
279.46229565734853
30
0
10
730.90945720520028
20
281.17391443786607
30
0
10
726.85755917968766
20
290.82025819396961
30
0
0
SPLINE
5
633
100
AcDbEntity
8
0
100
AcDbSpline
70
4
71
3
72
8
73
4
74
0
42
0.000000001
43
0.0000000001
44
0.0000000001
40
0
40
0
40
0
40
0
40
1
40
1
40
1
40
1
41
1
41
1
41
1
41
1
10
615.76223537216197
20
428.57562766723623
30
0
10
633.05282881088272
20
428.21169464874259
30
0
10
653.54787839736957
20
432.59274351348864
30
0
10
656.94471204681406
20
456.7538175857544
30
0
0
SPLINE
5
634
100
AcDbEntity
8
0
100
AcDbSpline
70
4
71
3
72
8
73
4
74
0
42
0.000000001
43
0.0000000001
44
0.0000000001
40
0
40
0
40
0
40
0
40
1
40
1
40
1
40
1
41
1
41
1
41
1
41
1
10
690.42217239913953
20
429.48910621185291
30
0
10
693.20002522583013
20
424.53190356140124
30
0
10
693.27322482757586
20
414.31233142242434
30
0
10
678.31089712295523
20
408.90614396820058
30
0
0
SPLINE
5
635
100
AcDbEntity
8
0
100
AcDbSpline
70
4
71
3
72
8
73
4
74
0
42
0.000000001
43
0.0000000001
44
0.0000000001
40
0
40
0
40
0
40
0
40
1
40
1
40
1
40
1
41
1
41
1
41
1
41
1
10
678.31089712295523
20
408.90614396820058
30
0
10
660.33197360610973
20
402.08193202209458
30
0
10
635.28947135849
20
408.01561692962639
30
0
10
615.76223537216197
20
428.57562766723623
30
0
0
SPLINE
5
636
100
AcDbEntity
8
0
100
AcDbSpline
70
4
71
3
72
8
73
4
74
0
42
0.000000001
43
0.0000000001
44
0.0000000001
40
0
40
0
40
0
40
0
40
1
40
1
40
1
40
1
41
1
41
1
41
1
41
1
10
584.08447854003907
20
551.78992744369498
30
0
10
577.53642677230823
20
547.7279303253174
30
0
10
573.65453552093516
20
539.90284342498774
30
0
10
568.25420962753299
20
530.26880356903075
30
0
0
SPLINE
5
637
100
AcDbEntity
8
0
100
AcDbSpline
70
4
71
3
72
8
73
4
74
0
42
0.000000001
43
0.0000000001
44
0.0000000001
40
0
40
0
40
0
40
0
40
1
40
1
40
1
40
1
41
1
41
1
41
1
41
1
10
671.67217937774672
20
427.30010901184073
30
0
10
677.81752578430201
20
434.80277780151357
30
0
10
686.30721688537608
20
434.78453705444332
30
0
10
690.42217239913953
20
429.48910621185291
30
0
0
SPLINE
5
638
100
AcDbEntity
8
0
100
AcDbSpline
70
4
71
3
72
8
73
4
74
0
42
0.000000001
43
0.0000000001
44
0.0000000001
40
0
40
0
40
0
40
0
40
1
40
1
40
1
40
1
41
1
41
1
41
1
41
1
10
656.94471204681406
20
456.7538175857544
30
0
10
659.8829457817078
20
451.45819315032952
30
0
10
666.369295211029
20
443.34129731750477
30
0
10
675.38257964324941
20
444.68909063110345
30
0
0
SPLINE
5
639
100
AcDbEntity
8
0
100
AcDbSpline
70
4
71
3
72
8
73
4
74
0
42
0.000000001
43
0.0000000001
44
0.0000000001
40
0
40
0
40
0
40
0
40
1
40
1
40
1
40
1
41
1
41
1
41
1
41
1
10
697.07029015197759
20
262.76947387084954
30
0
10
696.87394399719233
20
282.31370300598138
30
0
10
701.25914435272216
20
285.78473648681631
30
0
10
707.58321996612551
20
294.82257494354235
30
0
0
SPLINE
5
640
100
AcDbEntity
8
0
100
AcDbSpline
70
4
71
3
72
8
73
4
74
0
42
0.000000001
43
0.0000000001
44
0.0000000001
40
0
40
0
40
0
40
0
40
1
40
1
40
1
40
1
41
1
41
1
41
1
41
1
10
586.01608331146247
20
601.87954590148922
30
0
10
576.03062406272886
20
601.87954590148922
30
0
10
550.87751577568054
20
576.53995393905643
30
0
10
584.08447854003907
20
551.78992744369498
30
0
0
SPLINE
5
641
100
AcDbEntity
8
0
100
AcDbSpline
70
4
71
3
72
8
73
4
74
0
42
0.000000001
43
0.0000000001
44
0.0000000001
40
0
40
0
40
0
40
0
40
1
40
1
40
1
40
1
41
1
41
1
41
1
41
1
10
707.58321996612551
20
294.82257494354235
30
0
10
715.5972104522707
20
306.68402942199697
30
0
10
734.03473388366706
20
309.67673802947985
30
0
10
743.55743634948738
20
301.94263976135238
30
0
0
SPLINE
5
642
100
AcDbEntity
8
0
100
AcDbSpline
70
4
71
3
72
8
73
4
74
0
42
0.000000001
43
0.0000000001
44
0.0000000001
40
0
40
0
40
0
40
0
40
1
40
1
40
1
40
1
41
1
41
1
41
1
41
1
10
675.38257964324941
20
444.68909063110345
30
0
10
668.1494996307373
20
438.65658733673087
30
0
10
668.60471167068476
20
432.69356235961908
30
0
10
671.67217937774672
20
427.30010901184073
30
0
0
SPLINE
5
643
100
AcDbEntity
8
0
100
AcDbSpline
70
4
71
3
72
8
73
4
74
0
42
0.000000001
43
0.0000000001
44
0.0000000001
40
-1
40
-1
40
-1
40
-1
40
0
40
0
40
0
40
0
41
1
41
1
41
1
41
1
10
844.52838191680917
20
558.33333298339835
30
0
10
845.45597122802747
20
547.31045813293451
30
0
10
845.17803644866945
20
534.96481722030637
30
0
10
834.81223718872093
20
531.84313276443481
30
0
0
SPLINE
5
644
100
AcDbEntity
8
0
100
AcDbSpline
70
4
71
3
72
8
73
4
74
0
42
0.000000001
43
0.0000000001
44
0.0000000001
40
-1
40
-1
40
-1
40
-1
40
0
40
0
40
0
40
0
41
1
41
1
41
1
41
1
10
677.36717507553112
20
281.44971969604478
30
0
10
653.34042216491696
20
262.87939158020004
30
0
10
598.94258876876825
20
300.10998243865964
30
0
10
582.21205940017705
20
252.68543822631827
30
0
0
SPLINE
5
645
100
AcDbEntity
8
0
100
AcDbSpline
70
4
71
3
72
8
73
4
74
0
42
0.000000001
43
0.0000000001
44
0.0000000001
40
0
40
0
40
0
40
0
40
1
40
1
40
1
40
1
41
1
41
1
41
1
41
1
10
568.25420962753299
20
530.26880356903075
30
0
10
566.39090548362742
20
526.94471780471804
30
0
10
565.17086730804431
20
526.50439090270993
30
0
10
562.96890476570138
20
526.44425881729126
30
0
0
SPLINE
5
646
100
AcDbEntity
8
0
100
AcDbSpline
70
4
71
3
72
8
73
4
74
0
42
0.000000001
43
0.0000000001
44
0.0000000001
40
-1
40
-1
40
-1
40
-1
40
0
40
0
40
0
40
0
41
1
41
1
41
1
41
1
10
582.21205940017705
20
252.68543822631827
30
0
10
575.90245485115042
20
266.30895317382794
30
0
10
570.78307518119811
20
291.55500753173817
30
0
10
577.60729250488282
20
309.53395255889882
30
0
0
SPLINE
5
647
100
AcDbEntity
8
0
100
AcDbSpline
70
4
71
3
72
8
73
4
74
0
42
0.000000001
43
0.0000000001
44
0.0000000001
40
-1
40
-1
40
-1
40
-1
40
0
40
0
40
0
40
0
41
1
41
1
41
1
41
1
10
577.60729250488282
20
309.53395255889882
30
0
10
584.4935509544373
20
326.71639213409406
30
0
10
597.02675105819708
20
334.2861515960692
30
0
10
610.95951980361951
20
334.76553047485339
30
0
0
SPLINE
5
648
100
AcDbEntity
8
0
100
AcDbSpline
70
4
71
3
72
8
73
4
74
0
42
0.000000001
43
0.0000000001
44
0.0000000001
40
-1
40
-1
40
-1
40
-1
40
0
40
0
40
0
40
0
41
1
41
1
41
1
41
1
10
822.91696849517837
20
543.13416595611568
30
0
10
820.98465388336194
20
543.44892639465331
30
0
10
819.28331703338631
20
542.86216802368153
30
0
10
817.11638941650392
20
542.42554089584348
30
0
0
SPLINE
5
649
100
AcDbEntity
8
0
100
AcDbSpline
70
4
71
3
72
8
73
4
74
0
42
0.000000001
43
0.0000000001
44
0.0000000001
40
-1
40
-1
40
-1
40
-1
40
0
40
0
40
0
40
0
41
1
41
1
41
1
41
1
10
808.66165257720945
20
558.12810306854249
30
0
10
796.77287999877933
20
562.87495634918207
30
0
10
794.20308569335941
20
555.4537901428223
30
0
10
786.86131405944832
20
555.67036674880978
30
0
0
SPLINE
5
650
100
AcDbEntity
8
0
100
AcDbSpline
70
4
71
3
72
8
73
4
74
0
42
0.000000001
43
0.0000000001
44
0.0000000001
40
-1
40
-1
40
-1
40
-1
40
0
40
0
40
0
40
0
41
1
41
1
41
1
41
1
10
817.11638941650392
20
542.42554089584348
30
0
10
815.52662657012945
20
549.82445468139645
30
0
10
812.93263316040054
20
556.42281907577512
30
0
10
808.66165257720945
20
558.12810306854249
30
0
0
LINE
5
651
100
AcDbEntity
8
0
100
AcDbLine
10
562.96890476570138
20
526.44425881729126
30
0
11
562.96890476570138
21
601.87954590148922
31
0
0
SPLINE
5
652
100
AcDbEntity
8
0
100
AcDbSpline
70
4
71
3
72
8
73
4
74
0
42
0.000000001
43
0.0000000001
44
0.0000000001
40
-1
40
-1
40
-1
40
-1
40
0
40
0
40
0
40
0
41
1
41
1
41
1
41
1
10
834.81223718872093
20
531.84313276443481
30
0
10
829.84548395843512
20
530.51369850463868
30
0
10
824.43226263122574
20
533.29149755554204
30
0
10
822.91696849517837
20
543.13416595611568
30
0
0
SPLINE
5
653
100
AcDbEntity
8
0
100
AcDbSpline
70
4
71
3
72
8
73
4
74
0
42
0.000000001
43
0.0000000001
44
0.0000000001
40
-1
40
-1
40
-1
40
-1
40
0
40
0
40
0
40
0
41
1
41
1
41
1
41
1
10
786.86131405944832
20
555.67036674880978
30
0
10
791.53563455810558
20
578.56709139671329
30
0
10
811.35581952362077
20
590.533817356491
30
0
10
829.58587596740722
20
582.01144670944211
30
0
0
SPLINE
5
654
100
AcDbEntity
8
0
100
AcDbSpline
70
4
71
3
72
8
73
4
74
0
42
0.000000001
43
0.0000000001
44
0.0000000001
40
-1
40
-1
40
-1
40
-1
40
0
40
0
40
0
40
0
41
1
41
1
41
1
41
1
10
829.58587596740722
20
582.01144670944211
30
0
10
839.77339773712174
20
575.18809517593377
30
0
10
843.59498482055665
20
566.39026343574517
30
0
10
844.52838191680917
20
558.33333298339835
30
0
0
LINE
5
655
100
AcDbEntity
8
0
100
AcDbLine
10
870.39911733093277
20
177.81108638000475
30
0
11
834.88782443542493
21
177.81108638000475
31
0
0
SPLINE
5
656
100
AcDbEntity
8
0
100
AcDbSpline
70
4
71
3
72
8
73
4
74
0
42
0.000000001
43
0.0000000001
44
0.0000000001
40
0
40
0
40
0
40
0
40
1
40
1
40
1
40
1
41
1
41
1
41
1
41
1
10
883.74730024719247
20
212.68446937561023
30
0
10
889.65837781372079
20
210.06619082031227
30
0
10
892.3673008361817
20
204.13773291931136
30
0
10
890.96964661254901
20
200.5548458007811
30
0
0
SPLINE
5
657
100
AcDbEntity
8
0
100
AcDbSpline
70
4
71
3
72
8
73
4
74
0
42
0.000000001
43
0.0000000001
44
0.0000000001
40
0
40
0
40
0
40
0
40
1
40
1
40
1
40
1
41
1
41
1
41
1
41
1
10
868.53012908630376
20
203.78612531127914
30
0
10
865.55699486541755
20
198.99156215209956
30
0
10
860.10255977478039
20
182.39015920410139
30
0
10
870.39911733093277
20
177.81108638000475
30
0
0
SPLINE
5
658
100
AcDbEntity
8
0
100
AcDbSpline
70
4
71
3
72
8
73
4
74
0
42
0.000000001
43
0.0000000001
44
0.0000000001
40
0
40
0
40
0
40
0
40
1
40
1
40
1
40
1
41
1
41
1
41
1
41
1
10
890.96964661254901
20
200.5548458007811
30
0
10
887.81890172119142
20
192.47815274658194
30
0
10
874.38738784484883
20
189.84176250610346
30
0
10
868.53012908630376
20
203.78612531127914
30
0
0
SPLINE
5
659
100
AcDbEntity
8
0
100
AcDbSpline
70
4
71
3
72
8
73
4
74
0
42
0.000000001
43
0.0000000001
44
0.0000000001
40
-1
40
-1
40
-1
40
-1
40
0
40
0
40
0
40
0
41
1
41
1
41
1
41
1
10
611.88029034500119
20
313.07409868164052
30
0
10
609.83678891525278
20
292.54985959777827
30
0
10
637.88800344467177
20
285.50381177368143
30
0
10
654.10569463958745
20
303.75555061492912
30
0
0
SPLINE
5
660
100
AcDbEntity
8
0
100
AcDbSpline
70
4
71
3
72
8
73
4
74
0
42
0.000000001
43
0.0000000001
44
0.0000000001
40
-1
40
-1
40
-1
40
-1
40
0
40
0
40
0
40
0
41
1
41
1
41
1
41
1
10
654.10569463958745
20
303.75555061492912
30
0
10
654.06205021057133
20
292.26755822448717
30
0
10
666.30778646545423
20
282.56851419677719
30
0
10
677.36717507553112
20
281.44971969604478
30
0
0
SPLINE
5
661
100
AcDbEntity
8
0
100
AcDbSpline
70
4
71
3
72
8
73
4
74
0
42
0.000000001
43
0.0000000001
44
0.0000000001
40
0
40
0
40
0
40
0
40
1
40
1
40
1
40
1
41
1
41
1
41
1
41
1
10
834.88782443542493
20
177.81108638000475
30
0
10
846.25649910888683
20
188.31087339172342
30
0
10
849.75209736938496
20
194.89556798095686
30
0
10
856.07617298278819
20
203.93342794799793
30
0
0
SPLINE
5
662
100
AcDbEntity
8
0
100
AcDbSpline
70
4
71
3
72
8
73
4
74
0
42
0.000000001
43
0.0000000001
44
0.0000000001
40
-1
40
-1
40
-1
40
-1
40
0
40
0
40
0
40
0
41
1
41
1
41
1
41
1
10
610.95951980361951
20
334.76553047485339
30
0
10
639.869920842743
20
335.53643865203856
30
0
10
644.81250723419191
20
307.91099929656974
30
0
10
611.88029034500119
20
313.07409868164052
30
0
0
SPLINE
5
663
100
AcDbEntity
8
0
100
AcDbSpline
70
4
71
3
72
8
73
4
74
0
42
0.000000001
43
0.0000000001
44
0.0000000001
40
0
40
0
40
0
40
0
40
1
40
1
40
1
40
1
41
1
41
1
41
1
41
1
10
774.99975202941891
20
600.20207474594122
30
0
10
768.97802540283215
20
599.97684561576841
30
0
10
764.51575358886726
20
592.97276441612235
30
0
10
761.33693773651135
20
586.0317783477783
30
0
0
SPLINE
5
664
100
AcDbEntity
8
0
100
AcDbSpline
70
4
71
3
72
8
73
4
74
0
42
0.000000001
43
0.0000000001
44
0.0000000001
40
0
40
0
40
0
40
0
40
1
40
1
40
1
40
1
41
1
41
1
41
1
41
1
10
871.62879750518812
20
370.68313170928946
30
0
10
889.60774253234877
20
377.5073436553954
30
0
10
914.65022326965345
20
371.57365874786365
30
0
10
934.1774592559816
20
351.01364801025386
30
0
0
SPLINE
5
665
100
AcDbEntity
8
0
100
AcDbSpline
70
4
71
3
72
8
73
4
74
0
42
0.000000001
43
0.0000000001
44
0.0000000001
40
0
40
0
40
0
40
0
40
1
40
1
40
1
40
1
41
1
41
1
41
1
41
1
10
892.99497182617199
20
322.83545809173575
30
0
10
890.05674884643565
20
328.13108252716057
30
0
10
883.57039941711434
20
336.24797835998521
30
0
10
874.55710422973641
20
334.90018504638664
30
0
0
LINE
5
666
100
AcDbEntity
8
0
100
AcDbLine
10
742.50575403137213
20
601.87955127906798
30
0
11
807.49375002746604
21
601.87955127906798
31
0
0
SPLINE
5
667
100
AcDbEntity
8
0
100
AcDbSpline
70
4
71
3
72
8
73
4
74
0
42
0.000000001
43
0.0000000001
44
0.0000000001
40
-1
40
-1
40
-1
40
-1
40
0
40
0
40
0
40
0
41
1
41
1
41
1
41
1
10
807.49375002746592
20
601.87955127906798
30
0
10
800.67906715087906
20
597.84016687927237
30
0
10
792.07289769439717
20
589.88804543647768
30
0
10
788.66256632232671
20
586.0317783477783
30
0
0
SPLINE
5
668
100
AcDbEntity
8
0
100
AcDbSpline
70
4
71
3
72
8
73
4
74
0
42
0.000000001
43
0.0000000001
44
0.0000000001
40
0
40
0
40
0
40
0
40
1
40
1
40
1
40
1
41
1
41
1
41
1
41
1
10
856.07617298278819
20
203.93342794799793
30
0
10
864.09016346893327
20
215.79490393676735
30
0
10
874.22459778137204
20
215.97047112731914
30
0
10
883.74730024719247
20
212.68446937561023
30
0
0
LINE
5
669
100
AcDbEntity
8
0
100
AcDbLine
10
963.98339923706067
20
601.87954590148922
30
0
11
987.03058316040051
21
601.87954590148922
31
0
0
SPLINE
5
670
100
AcDbEntity
8
0
100
AcDbSpline
70
4
71
3
72
8
73
4
74
0
42
0.000000001
43
0.0000000001
44
0.0000000001
40
-1
40
-1
40
-1
40
-1
40
0
40
0
40
0
40
0
41
1
41
1
41
1
41
1
10
987.03058316040051
20
526.44425881729126
30
0
10
984.82861524047871
20
526.50439090270993
30
0
10
983.60859319763199
20
526.94471780471804
30
0
10
981.74528367614766
20
530.26880356903075
30
0
0
SPLINE
5
671
100
AcDbEntity
8
0
100
AcDbSpline
70
4
71
3
72
8
73
4
74
0
42
0.000000001
43
0.0000000001
44
0.0000000001
40
0
40
0
40
0
40
0
40
1
40
1
40
1
40
1
41
1
41
1
41
1
41
1
10
859.51752222900404
20
350.10016946563712
30
0
10
856.73968015747073
20
355.05737211608891
30
0
10
856.66645904541031
20
365.27694425506581
30
0
10
871.62879750518812
20
370.68313170928946
30
0
0
SPLINE
5
672
100
AcDbEntity
8
0
100
AcDbSpline
70
4
71
3
72
8
73
4
74
0
42
0.000000001
43
0.0000000001
44
0.0000000001
40
-1
40
-1
40
-1
40
-1
40
0
40
0
40
0
40
0
41
1
41
1
41
1
41
1
10
965.91502551879898
20
551.78992744369498
30
0
10
999.12196139526372
20
576.53995393905643
30
0
10
973.96887461853044
20
601.87954590148922
30
0
10
963.98339923706067
20
601.87954590148922
30
0
0
SPLINE
5
673
100
AcDbEntity
8
0
100
AcDbSpline
70
4
71
3
72
8
73
4
74
0
42
0.000000001
43
0.0000000001
44
0.0000000001
40
-1
40
-1
40
-1
40
-1
40
0
40
0
40
0
40
0
41
1
41
1
41
1
41
1
10
981.74528367614766
20
530.26880356903075
30
0
10
976.34494702758798
20
539.90284342498774
30
0
10
972.46306653137231
20
547.7279303253174
30
0
10
965.91502551879898
20
551.78992744369498
30
0
0
SPLINE
5
674
100
AcDbEntity
8
0
100
AcDbSpline
70
4
71
3
72
8
73
4
74
0
42
0.000000001
43
0.0000000001
44
0.0000000001
40
-1
40
-1
40
-1
40
-1
40
0
40
0
40
0
40
0
41
1
41
1
41
1
41
1
10
788.66256632232671
20
586.0317783477783
30
0
10
785.4837504699708
20
592.97276441612235
30
0
10
781.02147865600602
20
599.97684561576841
30
0
10
774.99975202941891
20
600.20207474594122
30
0
0
SPLINE
5
675
100
AcDbEntity
8
0
100
AcDbSpline
70
4
71
3
72
8
73
4
74
0
42
0.000000001
43
0.0000000001
44
0.0000000001
40
0
40
0
40
0
40
0
40
1
40
1
40
1
40
1
41
1
41
1
41
1
41
1
10
934.1774592559816
20
351.01364801025386
30
0
10
916.88686581726085
20
351.3775810287475
30
0
10
896.39183774108903
20
346.99653216400134
30
0
10
892.99497182617199
20
322.83545809173575
30
0
0
LINE
5
676
100
AcDbEntity
8
0
100
AcDbLine
10
987.03058316040051
20
601.87954590148922
30
0
11
987.03058316040051
21
526.44425881729126
31
0
0
SPLINE
5
677
100
AcDbEntity
8
0
100
AcDbSpline
70
4
71
3
72
8
73
4
74
0
42
0.000000001
43
0.0000000001
44
0.0000000001
40
0
40
0
40
0
40
0
40
1
40
1
40
1
40
1
41
1
41
1
41
1
41
1
10
878.26750449523934
20
352.2891666656493
30
0
10
872.12213657836924
20
344.78649787597647
30
0
10
863.63246698760986
20
344.80473862304677
30
0
10
859.51752222900404
20
350.10016946563712
30
0
0
SPLINE
5
678
100
AcDbEntity
8
0
100
AcDbSpline
70
4
71
3
72
8
73
4
74
0
42
0.000000001
43
0.0000000001
44
0.0000000001
40
0
40
0
40
0
40
0
40
1
40
1
40
1
40
1
41
1
41
1
41
1
41
1
10
761.33693773651135
20
586.0317783477783
30
0
10
757.926606364441
20
589.88804543647768
30
0
10
749.32043690795911
20
597.84016687927237
30
0
10
742.50575403137213
20
601.87955127906798
30
0
0
SPLINE
5
679
100
AcDbEntity
8
0
100
AcDbSpline
70
4
71
3
72
8
73
4
74
0
42
0.000000001
43
0.0000000001
44
0.0000000001
40
-1
40
-1
40
-1
40
-1
40
0
40
0
40
0
40
0
41
1
41
1
41
1
41
1
10
852.92919239654555
20
262.76947387084954
30
0
10
847.09656294860849
20
268.88588890380845
30
0
10
839.26347421112064
20
273.65425249938943
30
0
10
829.27944002075208
20
270.03466878356926
30
0
0
SPLINE
5
680
100
AcDbEntity
8
0
100
AcDbSpline
70
4
71
3
72
8
73
4
74
0
42
0.000000001
43
0.0000000001
44
0.0000000001
40
0
40
0
40
0
40
0
40
1
40
1
40
1
40
1
41
1
41
1
41
1
41
1
10
874.55710422973641
20
334.90018504638664
30
0
10
881.79016273193372
20
340.93268834075911
30
0
10
881.33496144714377
20
346.89571331787101
30
0
10
878.26750449523934
20
352.2891666656493
30
0
0
SPLINE
5
681
100
AcDbEntity
8
0
100
AcDbSpline
70
4
71
3
72
8
73
4
74
0
42
0.000000001
43
0.0000000001
44
0.0000000001
40
0
40
0
40
0
40
0
40
1
40
1
40
1
40
1
41
1
41
1
41
1
41
1
10
583.83524927597045
20
349.81621179809559
30
0
10
580.62489392433167
20
336.87302509155273
30
0
10
567.10089107131967
20
317.92828843383779
30
0
10
562.96891014328003
20
308.53940163726799
30
0
0
SPLINE
5
682
100
AcDbEntity
8
0
100
AcDbSpline
70
4
71
3
72
8
73
4
74
0
42
0.000000001
43
0.0000000001
44
0.0000000001
40
-1
40
-1
40
-1
40
-1
40
0
40
0
40
0
40
0
41
1
41
1
41
1
41
1
10
690.42217239913953
20
350.16211917266844
30
0
10
686.30721688537608
20
344.86668833007798
30
0
10
677.81752578430201
20
344.84844758300767
30
0
10
671.67217937774672
20
352.35111637268056
30
0
0
LINE
5
683
100
AcDbEntity
8
0
100
AcDbLine
10
562.96891014328003
20
308.53940163726799
30
0
11
562.96891014328003
21
471.1512091339111
31
0
0
SPLINE
5
684
100
AcDbEntity
8
0
100
AcDbSpline
70
4
71
3
72
8
73
4
74
0
42
0.000000001
43
0.0000000001
44
0.0000000001
40
0.00026584662154907976
40
0.00026584662154907976
40
0.00026584662154907976
40
0.00026584662154907976
40
1
40
1
40
1
40
1
41
1
41
1
41
1
41
1
10
578.89291929143167
20
389.84530538558943
30
0
10
574.03112400482451
20
385.57181947290218
30
0
10
571.26459169318878
20
382.25577356270639
30
0
10
569.85928244056709
20
373.78618823242175
30
0
0
SPLINE
5
685
100
AcDbEntity
8
0
100
AcDbSpline
70
4
71
3
72
8
73
4
74
0
42
0.000000001
43
0.0000000001
44
0.0000000001
40
0
40
0
40
0
40
0
40
1
40
1
40
1
40
1
41
1
41
1
41
1
41
1
10
569.85928244056709
20
373.78618823242175
30
0
10
574.07459970626837
20
373.64742519073474
30
0
10
590.27351239624022
20
370.29207418365473
30
0
10
583.83524927597045
20
349.81621179809559
30
0
0
SPLINE
5
686
100
AcDbEntity
8
0
100
AcDbSpline
70
4
71
3
72
8
73
4
74
0
42
0.000000001
43
0.0000000001
44
0.0000000001
40
-1
40
-1
40
-1
40
-1
40
0
40
0
40
0
40
0
41
1
41
1
41
1
41
1
10
823.14192336883548
20
290.82025819396961
30
0
10
819.09002534332274
20
281.17391443786607
30
0
10
811.41346716766361
20
279.46229565734853
30
0
10
806.02313281555189
20
281.99737231445306
30
0
0
SPLINE
5
687
100
AcDbEntity
8
0
100
AcDbSpline
70
4
71
3
72
8
73
4
74
0
42
0.000000001
43
0.0000000001
44
0.0000000001
40
-1
40
-1
40
-1
40
-1
40
0
40
0
40
0
40
0
41
1
41
1
41
1
41
1
10
671.67217937774672
20
352.35111637268056
30
0
10
668.60471167068476
20
346.95766302490227
30
0
10
668.1494996307373
20
340.99463804779043
30
0
10
675.38257964324941
20
334.9621347534179
30
0
0
SPLINE
5
688
100
AcDbEntity
8
0
100
AcDbSpline
70
4
71
3
72
8
73
4
74
0
42
0.000000001
43
0.0000000001
44
0.0000000001
40
-1
40
-1
40
-1
40
-1
40
0
40
0
40
0
40
0
41
1
41
1
41
1
41
1
10
583.83524927597045
20
429.87439897308343
30
0
10
590.27351239624022
20
409.3985365875244
30
0
10
574.07459970626837
20
406.04318558044429
30
0
10
569.85928244056709
20
405.90442253875722
30
0
0
SPLINE
5
689
100
AcDbEntity
8
0
100
AcDbSpline
70
4
71
3
72
8
73
4
74
0
42
0.000000001
43
0.0000000001
44
0.0000000001
40
-1
40
-1
40
-1
40
-1
40
-0.00026584662154424964
40
-0.00026584662154424964
40
-0.00026584662154424964
40
-0.00026584662154424964
41
1
41
1
41
1
41
1
10
569.85928244056709
20
405.90442253875722
30
0
10
571.26459169318878
20
397.43483720847252
30
0
10
574.03112400482451
20
394.1187912982769
30
0
10
578.89291929143178
20
389.84530538558948
30
0
0
SPLINE
5
690
100
AcDbEntity
8
0
100
AcDbSpline
70
4
71
3
72
8
73
4
74
0
42
0.000000001
43
0.0000000001
44
0.0000000001
40
-1
40
-1
40
-1
40
-1
40
0
40
0
40
0
40
0
41
1
41
1
41
1
41
1
10
678.31089712295523
20
370.74508141632066
30
0
10
693.27322482757586
20
365.33889396209707
30
0
10
693.20002522583013
20
355.11932182311995
30
0
10
690.42217239913953
20
350.16211917266844
30
0
0
SPLINE
5
691
100
AcDbEntity
8
0
100
AcDbSpline
70
4
71
3
72
8
73
4
74
0
42
0.000000001
43
0.0000000001
44
0.0000000001
40
-1
40
-1
40
-1
40
-1
40
0
40
0
40
0
40
0
41
1
41
1
41
1
41
1
10
562.96891014328003
20
471.1512091339111
30
0
10
567.10089107131967
20
461.76232233734129
30
0
10
580.62489392433167
20
442.8175856796264
30
0
10
583.83524927597045
20
429.87439897308343
30
0
0
SPLINE
5
692
100
AcDbEntity
8
0
100
AcDbSpline
70
4
71
3
72
8
73
4
74
0
42
0.000000001
43
0.0000000001
44
0.0000000001
40
-1
40
-1
40
-1
40
-1
40
0
40
0
40
0
40
0
41
1
41
1
41
1
41
1
10
806.02313281555189
20
281.99737231445306
30
0
10
797.58564724884036
20
286.10790745849602
30
0
10
797.91290518035896
20
297.1853109573363
30
0
10
806.44204619903576
20
301.94263976135238
30
0
0
SPLINE
5
693
100
AcDbEntity
8
0
100
AcDbSpline
70
4
71
3
72
8
73
4
74
0
42
0.000000001
43
0.0000000001
44
0.0000000001
40
-1
40
-1
40
-1
40
-1
40
0
40
0
40
0
40
0
41
1
41
1
41
1
41
1
10
829.27944002075208
20
270.03466878356926
30
0
10
835.42448528289799
20
282.02718561096185
30
0
10
830.41488350524912
20
290.17727185974115
30
0
10
823.14192336883548
20
290.82025819396961
30
0
0
SPLINE
5
694
100
AcDbEntity
8
0
100
AcDbSpline
70
4
71
3
72
8
73
4
74
0
42
0.000000001
43
0.0000000001
44
0.0000000001
40
-1
40
-1
40
-1
40
-1
40
0
40
0
40
0
40
0
41
1
41
1
41
1
41
1
10
675.38257964324941
20
334.9621347534179
30
0
10
666.369295211029
20
336.30992806701659
30
0
10
659.8829457817078
20
328.19303223419183
30
0
10
656.94471204681406
20
322.89740779876706
30
0
0
SPLINE
5
695
100
AcDbEntity
8
0
100
AcDbSpline
70
4
71
3
72
8
73
4
74
0
42
0.000000001
43
0.0000000001
44
0.0000000001
40
-1
40
-1
40
-1
40
-1
40
0
40
0
40
0
40
0
41
1
41
1
41
1
41
1
10
615.76223537216197
20
351.07559771728506
30
0
10
635.28947135849
20
371.63560845489496
30
0
10
660.33197360610973
20
377.56929336242661
30
0
10
678.31089712295523
20
370.74508141632066
30
0
0
SPLINE
5
696
100
AcDbEntity
8
0
100
AcDbSpline
70
4
71
3
72
8
73
4
74
0
42
0.000000001
43
0.0000000001
44
0.0000000001
40
-1
40
-1
40
-1
40
-1
40
0
40
0
40
0
40
0
41
1
41
1
41
1
41
1
10
842.41626258239762
20
294.82257494354235
30
0
10
848.74033819580086
20
285.78473648681631
30
0
10
853.12553855133069
20
282.31370300598138
30
0
10
852.92919239654555
20
262.76947387084954
30
0
0
SPLINE
5
697
100
AcDbEntity
8
0
100
AcDbSpline
70
4
71
3
72
8
73
4
74
0
42
0.000000001
43
0.0000000001
44
0.0000000001
40
-1
40
-1
40
-1
40
-1
40
0
40
0
40
0
40
0
41
1
41
1
41
1
41
1
10
806.44204619903576
20
301.94263976135238
30
0
10
815.96474866485607
20
309.67673802947985
30
0
10
834.40227209625255
20
306.68402942199697
30
0
10
842.41626258239762
20
294.82257494354235
30
0
0
SPLINE
5
698
100
AcDbEntity
8
0
100
AcDbSpline
70
4
71
3
72
8
73
4
74
0
42
0.000000001
43
0.0000000001
44
0.0000000001
40
-1
40
-1
40
-1
40
-1
40
0
40
0
40
0
40
0
41
1
41
1
41
1
41
1
10
656.94471204681406
20
322.89740779876706
30
0
10
653.54787839736957
20
347.05848187103265
30
0
10
633.05282881088272
20
351.4395307357787
30
0
10
615.76223537216197
20
351.07559771728506
30
0
0
SPLINE
5
699
100
AcDbEntity
8
0
100
AcDbSpline
70
4
71
3
72
8
73
4
74
0
42
0.000000001
43
0.0000000001
44
0.0000000001
40
-1
40
-1
40
-1
40
-1
40
0
40
0
40
0
40
0
41
1
41
1
41
1
41
1
10
804.65389371795652
20
247.42810215148907
30
0
10
806.29364653625487
20
240.11429392700194
30
0
10
804.74335511779805
20
236.44097744445793
30
0
10
798.94634675140401
20
234.9056572052001
30
0
0
SPLINE
5
700
100
AcDbEntity
8
0
100
AcDbSpline
70
4
71
3
72
8
73
4
74
0
42
0.000000001
43
0.0000000001
44
0.0000000001
40
-1
40
-1
40
-1
40
-1
40
0
40
0
40
0
40
0
41
1
41
1
41
1
41
1
10
866.86069203338639
20
481.82462740783694
30
0
10
887.30037406921394
20
479.00990590133659
30
0
10
886.14161340332043
20
470.31936223449702
30
0
10
883.36377133178735
20
464.32611526489256
30
0
0
SPLINE
5
701
100
AcDbEntity
8
0
100
AcDbSpline
70
4
71
3
72
8
73
4
74
0
42
0.000000001
43
0.0000000001
44
0.0000000001
40
-1
40
-1
40
-1
40
-1
40
0
40
0
40
0
40
0
41
1
41
1
41
1
41
1
10
855.90228359680191
20
397.91848150329588
30
0
10
849.64721307373054
20
394.70656127624511
30
0
10
842.97675685882587
20
392.55157188415524
30
0
10
837.97152167511001
20
404.14991219024643
30
0
0
SPLINE
5
702
100
AcDbEntity
8
0
100
AcDbSpline
70
4
71
3
72
8
73
4
74
0
42
0.000000001
43
0.0000000001
44
0.0000000001
40
-1
40
-1
40
-1
40
-1
40
0
40
0
40
0
40
0
41
1
41
1
41
1
41
1
10
789.97617974548348
20
280.04668789367662
30
0
10
793.67629808044444
20
271.24724825744613
30
0
10
803.67119497985857
20
260.8055390960692
30
0
10
819.50868060302753
20
264.46418554382308
30
0
0
SPLINE
5
703
100
AcDbEntity
8
0
100
AcDbSpline
70
4
71
3
72
8
73
4
74
0
42
0.000000001
43
0.0000000001
44
0.0000000001
40
-1
40
-1
40
-1
40
-1
40
0
40
0
40
0
40
0
41
1
41
1
41
1
41
1
10
825.67269796295159
20
408.89233434600828
30
0
10
817.05865573120127
20
405.78073822784415
30
0
10
811.38468636627204
20
401.84228560333236
30
0
10
806.54258541107185
20
400.04043105163561
30
0
0
SPLINE
5
704
100
AcDbEntity
8
0
100
AcDbSpline
70
4
71
3
72
8
73
4
74
0
42
0.000000001
43
0.0000000001
44
0.0000000001
40
-1
40
-1
40
-1
40
-1
40
0
40
0
40
0
40
0
41
1
41
1
41
1
41
1
10
835.17967638854986
20
450.1435902526855
30
0
10
826.44272421722417
20
456.09089118957513
30
0
10
820.93791196899417
20
440.38053152770988
30
0
10
816.21364451904299
20
445.24175515289301
30
0
0
SPLINE
5
705
100
AcDbEntity
8
0
100
AcDbSpline
70
4
71
3
72
8
73
4
74
0
42
0.000000001
43
0.0000000001
44
0.0000000001
40
-1
40
-1
40
-1
40
-1
40
-0.00037183744068171288
40
-0.00037183744068171288
40
-0.00037183744068171288
40
-0.00037183744068171288
41
1
41
1
41
1
41
1
10
946.75355092773452
20
358.11073981170648
30
0
10
931.5102576568886
20
376.55099751478178
30
0
10
909.82043055001077
20
386.78743165497116
30
0
10
898.43829235695705
20
389.84530538558948
30
0
0
SPLINE
5
706
100
AcDbEntity
8
0
100
AcDbSpline
70
4
71
3
72
8
73
4
74
0
42
0.000000001
43
0.0000000001
44
0.0000000001
40
-1
40
-1
40
-1
40
-1
40
0
40
0
40
0
40
0
41
1
41
1
41
1
41
1
10
780.31525199584962
20
473.3265903045654
30
0
10
788.46643527069102
20
467.18774001312255
30
0
10
805.82833540344245
20
456.48476656646721
30
0
10
817.25332408142094
20
456.85887396392815
30
0
0
SPLINE
5
707
100
AcDbEntity
8
0
100
AcDbSpline
70
4
71
3
72
8
73
4
74
0
42
0.000000001
43
0.0000000001
44
0.0000000001
40
-0.99751686591409205
40
-0.99751686591409205
40
-0.99751686591409205
40
-0.99751686591409205
40
0
40
0
40
0
40
0
41
1
41
1
41
1
41
1
10
961.90257383815651
20
389.84530538557095
30
0
10
950.13268512272157
20
383.58298172159414
30
0
10
945.18801244801057
20
369.63202331116906
30
0
10
946.75355092773452
20
358.11073981170648
30
0
0
SPLINE
5
708
100
AcDbEntity
8
0
100
AcDbSpline
70
4
71
3
72
8
73
4
74
0
42
0.000000001
43
0.0000000001
44
0.0000000001
40
-1
40
-1
40
-1
40
-1
40
0
40
0
40
0
40
0
41
1
41
1
41
1
41
1
10
837.97152167511001
20
404.14991219024643
30
0
10
838.50433217620866
20
408.92186800842285
30
0
10
838.57439127197267
20
416.31378018646228
30
0
10
825.67269796295159
20
408.89233434600828
30
0
0
SPLINE
5
709
100
AcDbEntity
8
0
100
AcDbSpline
70
4
71
3
72
8
73
4
74
0
42
0.000000001
43
0.0000000001
44
0.0000000001
40
-1
40
-1
40
-1
40
-1
40
0
40
0
40
0
40
0
41
1
41
1
41
1
41
1
10
783.96490713195817
20
453.52737789611808
30
0
10
783.54029351501481
20
462.26936348114009
30
0
10
779.67170639343271
20
463.28992037353515
30
0
10
780.31525199584962
20
473.3265903045654
30
0
0
SPLINE
5
710
100
AcDbEntity
8
0
100
AcDbSpline
70
4
71
3
72
8
73
4
74
0
42
0.000000001
43
0.0000000001
44
0.0000000001
40
-1
40
-1
40
-1
40
-1
40
0
40
0
40
0
40
0
41
1
41
1
41
1
41
1
10
806.54258541107185
20
400.04043105163561
30
0
10
797.67588302001957
20
396.52071972808824
30
0
10
792.17143644714361
20
405.75361372070302
30
0
10
802.61366185607915
20
410.10074081878656
30
0
0
SPLINE
5
711
100
AcDbEntity
8
0
100
AcDbSpline
70
4
71
3
72
8
73
4
74
0
42
0.000000001
43
0.0000000001
44
0.0000000001
40
-1
40
-1
40
-1
40
-1
40
0
40
0
40
0
40
0
41
1
41
1
41
1
41
1
10
782.43616904907242
20
420.40061096343993
30
0
10
782.84430576477064
20
424.76843098449706
30
0
10
784.9017458786011
20
430.67185087890618
30
0
10
789.97964290618916
20
436.73294138183593
30
0
0
SPLINE
5
712
100
AcDbEntity
8
0
100
AcDbSpline
70
4
71
3
72
8
73
4
74
0
42
0.000000001
43
0.0000000001
44
0.0000000001
40
-1
40
-1
40
-1
40
-1
40
0
40
0
40
0
40
0
41
1
41
1
41
1
41
1
10
798.94634675140401
20
234.9056572052001
30
0
10
785.58917252349852
20
233.94380196227999
30
0
10
771.69768207244886
20
270.82173120727526
30
0
10
783.75700993804935
20
281.394223083496
30
0
0
SPLINE
5
713
100
AcDbEntity
8
0
100
AcDbSpline
70
4
71
3
72
8
73
4
74
0
42
0.000000001
43
0.0000000001
44
0.0000000001
40
-1
40
-1
40
-1
40
-1
40
0
40
0
40
0
40
0
41
1
41
1
41
1
41
1
10
826.08868594360365
20
432.94873922576897
30
0
10
833.81387894134537
20
441.40065821380603
30
0
10
836.17016186065689
20
449.82657123107913
30
0
10
835.17967638854986
20
450.1435902526855
30
0
0
SPLINE
5
714
100
AcDbEntity
8
0
100
AcDbSpline
70
4
71
3
72
8
73
4
74
0
42
0.000000001
43
0.0000000001
44
0.0000000001
40
-1
40
-1
40
-1
40
-1
40
0
40
0
40
0
40
0
41
1
41
1
41
1
41
1
10
865.33675075073256
20
465.64469757080076
30
0
10
859.78384143829362
20
474.74775530242914
30
0
10
847.92268810424821
20
462.88660196838379
30
0
10
856.01820268402105
20
449.6807743164062
30
0
0
SPLINE
5
715
100
AcDbEntity
8
0
100
AcDbSpline
70
4
71
3
72
8
73
4
74
0
42
0.000000001
43
0.0000000001
44
0.0000000001
40
0.00037183744068150162
40
0.00037183744068150162
40
0.00037183744068150162
40
0.00037183744068150162
40
1
40
1
40
1
40
1
41
1
41
1
41
1
41
1
10
898.43829235695705
20
389.84530538558954
30
0
10
909.82043055001077
20
392.90317911620775
30
0
10
931.5102576568886
20
403.13961325639724
30
0
10
946.75355092773452
20
421.57987095947254
30
0
0
SPLINE
5
716
100
AcDbEntity
8
0
100
AcDbSpline
70
4
71
3
72
8
73
4
74
0
42
0.000000001
43
0.0000000001
44
0.0000000001
40
0
40
0
40
0
40
0
40
1
40
1
40
1
40
1
41
1
41
1
41
1
41
1
10
806.02313281555189
20
497.69323845672602
30
0
10
811.41346716766361
20
500.22831511383049
30
0
10
819.09002534332274
20
498.51669633331301
30
0
10
823.14192336883548
20
488.87037408752434
30
0
0
SPLINE
5
717
100
AcDbEntity
8
0
100
AcDbSpline
70
4
71
3
72
8
73
4
74
0
42
0.000000001
43
0.0000000001
44
0.0000000001
40
0
40
0
40
0
40
0
40
1
40
1
40
1
40
1
41
1
41
1
41
1
41
1
10
806.44204619903576
20
477.74799252014157
30
0
10
797.91290518035896
20
482.50531056900024
30
0
10
797.58564724884036
20
493.58271406784047
30
0
10
806.02313281555189
20
497.69323845672602
30
0
0
SPLINE
5
718
100
AcDbEntity
8
0
100
AcDbSpline
70
4
71
3
72
8
73
4
74
0
42
0.000000001
43
0.0000000001
44
0.0000000001
40
-1
40
-1
40
-1
40
-1
40
0
40
0
40
0
40
0
41
1
41
1
41
1
41
1
10
789.97964290618916
20
436.73294138183593
30
0
10
802.29406159667974
20
454.13932484588611
30
0
10
788.06281572113051
20
452.58195653381335
30
0
10
783.96490713195817
20
453.52737789611808
30
0
0
SPLINE
5
719
100
AcDbEntity
8
0
100
AcDbSpline
70
4
71
3
72
8
73
4
74
0
42
0.000000001
43
0.0000000001
44
0.0000000001
40
-1
40
-1
40
-1
40
-1
40
0
40
0
40
0
40
0
41
1
41
1
41
1
41
1
10
816.21364451904299
20
445.24175515289301
30
0
10
799.75636068115239
20
460.56497216644289
30
0
10
797.87616556243904
20
428.37768974914547
30
0
10
789.98540767059342
20
417.16672870483393
30
0
0
SPLINE
5
720
100
AcDbEntity
8
0
100
AcDbSpline
70
4
71
3
72
8
73
4
74
0
42
0.000000001
43
0.0000000001
44
0.0000000001
40
-1
40
-1
40
-1
40
-1
40
0
40
0
40
0
40
0
41
1
41
1
41
1
41
1
10
883.36377133178735
20
464.32611526489256
30
0
10
879.24884808349611
20
459.03068442230222
30
0
10
869.53823150634776
20
461.21331456909172
30
0
10
865.33675075073256
20
465.64469757080076
30
0
0
SPLINE
5
721
100
AcDbEntity
8
0
100
AcDbSpline
70
4
71
3
72
8
73
4
74
0
42
0.000000001
43
0.0000000001
44
0.0000000001
40
0
40
0
40
0
40
0
40
0.99751686591409205
40
0.99751686591409205
40
0.99751686591409205
40
0.99751686591409205
41
1
41
1
41
1
41
1
10
946.75355092773452
20
421.57987095947254
30
0
10
945.18801244801057
20
410.05858746000996
30
0
10
950.13268512272157
20
396.10762904958477
30
0
10
961.90257383815651
20
389.84530538560813
30
0
0
SPLINE
5
722
100
AcDbEntity
8
0
100
AcDbSpline
70
4
71
3
72
8
73
4
74
0
42
0.000000001
43
0.0000000001
44
0.0000000001
40
-1
40
-1
40
-1
40
-1
40
0
40
0
40
0
40
0
41
1
41
1
41
1
41
1
10
783.75700993804935
20
281.394223083496
30
0
10
785.11495612030046
20
282.61471835327137
30
0
10
788.72042906951924
20
282.86088239746084
30
0
10
789.97617974548348
20
280.04668789367662
30
0
0
SPLINE
5
723
100
AcDbEntity
8
0
100
AcDbSpline
70
4
71
3
72
8
73
4
74
0
42
0.000000001
43
0.0000000001
44
0.0000000001
40
-1
40
-1
40
-1
40
-1
40
0
40
0
40
0
40
0
41
1
41
1
41
1
41
1
10
802.61366185607915
20
410.10074081878656
30
0
10
813.25244852294929
20
414.30570624542224
30
0
10
850.64537772827157
20
416.71985191192618
30
0
10
826.08868594360365
20
432.94873922576897
30
0
0
SPLINE
5
724
100
AcDbEntity
8
0
100
AcDbSpline
70
4
71
3
72
8
73
4
74
0
42
0.000000001
43
0.0000000001
44
0.0000000001
40
-1
40
-1
40
-1
40
-1
40
0
40
0
40
0
40
0
41
1
41
1
41
1
41
1
10
819.50868060302753
20
264.46418554382308
30
0
10
813.2440164794923
20
260.11424059448234
30
0
10
811.88583368377692
20
254.20866966857901
30
0
10
813.13310929565432
20
246.89348478393532
30
0
0
SPLINE
5
725
100
AcDbEntity
8
0
100
AcDbSpline
70
4
71
3
72
8
73
4
74
0
42
0.000000001
43
0.0000000001
44
0.0000000001
40
-1
40
-1
40
-1
40
-1
40
0
40
0
40
0
40
0
41
1
41
1
41
1
41
1
10
789.98540767059342
20
417.16672870483393
30
0
10
786.29012915649423
20
412.02969982147209
30
0
10
781.59132991943363
20
412.21113932800279
30
0
10
782.43616904907242
20
420.40061096343993
30
0
0
SPLINE
5
726
100
AcDbEntity
8
0
100
AcDbSpline
70
4
71
3
72
8
73
4
74
0
42
0.000000001
43
0.0000000001
44
0.0000000001
40
-1
40
-1
40
-1
40
-1
40
0
40
0
40
0
40
0
41
1
41
1
41
1
41
1
10
813.13310929565432
20
246.89348478393532
30
0
10
809.44368158721932
20
248.73872564086901
30
0
10
807.81748026733408
20
248.17722037963853
30
0
10
804.65389371795652
20
247.42810215148907
30
0
0
SPLINE
5
727
100
AcDbEntity
8
0
100
AcDbSpline
70
4
71
3
72
8
73
4
74
0
42
0.000000001
43
0.0000000001
44
0.0000000001
40
-1
40
-1
40
-1
40
-1
40
0
40
0
40
0
40
0
41
1
41
1
41
1
41
1
10
856.01820268402105
20
449.6807743164062
30
0
10
840.63088493194584
20
446.97081879882802
30
0
10
830.707531340027
20
416.4773016006468
30
0
10
855.90228359680191
20
397.91848150329588
30
0
0
SPLINE
5
728
100
AcDbEntity
8
0
100
AcDbSpline
70
4
71
3
72
8
73
4
74
0
42
0.000000001
43
0.0000000001
44
0.0000000001
40
-1
40
-1
40
-1
40
-1
40
0
40
0
40
0
40
0
41
1
41
1
41
1
41
1
10
817.25332408142094
20
456.85887396392815
30
0
10
841.83434403228773
20
457.66376843872069
30
0
10
846.38859395294185
20
479.00295806961054
30
0
10
866.86069203338639
20
481.82462740783694
30
0
0
LWPOLYLINE
5
729
100
AcDbEntity
8
0
100
AcDbPolyline
90
20
70
1
43
0.0
10
997.5
20
350
10
997.5
20
430
10
1000
20
430
10
1000
20
615
10
812.5000000000415
20
615.00000000000091
10
812.5000000000415
20
612.50000000000091
10
732.5000000000415
20
612.50000000000091
10
732.5000000000415
20
615.00000000000091
10
545
20
615
10
545
20
430
10
547.5
20
430
10
547.5
20
350
10
545
20
350
10
545
20
165
10
732.5
20
165
10
732.5
20
167.5
10
812.5
20
167.5
10
812.5
20
165
10
1000
20
165
10
1000
20
350
0
SPLINE
5
730
100
AcDbEntity
8
0
100
AcDbSpline
70
4
71
3
72
8
73
4
74
0
42
0.000000001
43
0.0000000001
44
0.0000000001
40
-1
40
-1
40
-1
40
-1
40
0
40
0
40
0
40
0
41
1
41
1
41
1
41
1
10
883.74730024719247
20
567.00620592651364
30
0
10
874.22459778137204
20
563.7201934196471
30
0
10
864.09016346893327
20
563.89577136535638
30
0
10
856.07617298278819
20
575.75723659896846
30
0
0
SPLINE
5
731
100
AcDbEntity
8
0
100
AcDbSpline
70
4
71
3
72
8
73
4
74
0
42
0.000000001
43
0.0000000001
44
0.0000000001
40
-1
40
-1
40
-1
40
-1
40
0
40
0
40
0
40
0
41
1
41
1
41
1
41
1
10
856.07617298278819
20
575.75723659896846
30
0
10
849.75209736938496
20
584.79506430053709
30
0
10
846.25649910888683
20
591.37977502250669
30
0
10
834.88782443542493
20
601.87955127906798
30
0
0
SPLINE
5
732
100
AcDbEntity
8
0
100
AcDbSpline
70
4
71
3
72
8
73
4
74
0
42
0.000000001
43
0.0000000001
44
0.0000000001
40
-1
40
-1
40
-1
40
-1
40
0
40
0
40
0
40
0
41
1
41
1
41
1
41
1
10
890.96964661254901
20
579.13581336860648
30
0
10
892.3673008361817
20
575.55292625007621
30
0
10
889.65837781372079
20
569.62450599212639
30
0
10
883.74730024719247
20
567.00620592651364
30
0
0
SPLINE
5
733
100
AcDbEntity
8
0
100
AcDbSpline
70
4
71
3
72
8
73
4
74
0
42
0.000000001
43
0.0000000001
44
0.0000000001
40
-1
40
-1
40
-1
40
-1
40
0
40
0
40
0
40
0
41
1
41
1
41
1
41
1
10
681.46939648284933
20
203.78612531127914
30
0
10
675.61212696914686
20
189.84176250610346
30
0
10
662.18062384796156
20
192.47815274658194
30
0
10
659.02987895660408
20
200.5548458007811
30
0
0
SPLINE
5
734
100
AcDbEntity
8
0
100
AcDbSpline
70
4
71
3
72
8
73
4
74
0
42
0.000000001
43
0.0000000001
44
0.0000000001
40
-1
40
-1
40
-1
40
-1
40
0
40
0
40
0
40
0
41
1
41
1
41
1
41
1
10
659.02987895660408
20
200.5548458007811
30
0
10
657.63218171234143
20
204.13773291931136
30
0
10
660.34111548995975
20
210.06619082031227
30
0
10
666.25220381164559
20
212.68446937561023
30
0
0
SPLINE
5
735
100
AcDbEntity
8
0
100
AcDbSpline
70
4
71
3
72
8
73
4
74
0
42
0.000000001
43
0.0000000001
44
0.0000000001
40
-1
40
-1
40
-1
40
-1
40
0
40
0
40
0
40
0
41
1
41
1
41
1
41
1
10
870.39911733093277
20
601.87955127906798
30
0
10
860.10255977478039
20
597.30049458770748
30
0
10
865.55699486541755
20
580.69908626213066
30
0
10
868.53012908630376
20
575.90453923568725
30
0
0
SPLINE
5
736
100
AcDbEntity
8
0
100
AcDbSpline
70
4
71
3
72
8
73
4
74
0
42
0.000000001
43
0.0000000001
44
0.0000000001
40
-1
40
-1
40
-1
40
-1
40
0
40
0
40
0
40
0
41
1
41
1
41
1
41
1
10
693.92333107604986
20
203.93342794799793
30
0
10
700.24740668945333
20
194.89556798095686
30
0
10
703.74300494995111
20
188.31087339172342
30
0
10
715.11167962341324
20
177.81108638000475
30
0
0
SPLINE
5
737
100
AcDbEntity
8
0
100
AcDbSpline
70
4
71
3
72
8
73
4
74
0
42
0.000000001
43
0.0000000001
44
0.0000000001
40
-1
40
-1
40
-1
40
-1
40
0
40
0
40
0
40
0
41
1
41
1
41
1
41
1
10
666.25220381164559
20
212.68446937561023
30
0
10
675.77491703262342
20
215.97047112731914
30
0
10
685.9093298347475
20
215.79490393676735
30
0
10
693.92333107604986
20
203.93342794799793
30
0
0
LINE
5
738
100
AcDbEntity
8
0
100
AcDbLine
10
834.88782443542493
20
601.87955127906798
30
0
11
870.39911733093277
21
601.87955127906798
31
0
0
SPLINE
5
739
100
AcDbEntity
8
0
100
AcDbSpline
70
4
71
3
72
8
73
4
74
0
42
0.000000001
43
0.0000000001
44
0.0000000001
40
-1
40
-1
40
-1
40
-1
40
0
40
0
40
0
40
0
41
1
41
1
41
1
41
1
10
868.53012908630376
20
575.90453923568725
30
0
10
874.38738784484883
20
589.84889128570558
30
0
10
887.81890172119142
20
587.2125118003845
30
0
10
890.96964661254901
20
579.13581336860648
30
0
0
SPLINE
5
740
100
AcDbEntity
8
0
100
AcDbSpline
70
4
71
3
72
8
73
4
74
0
42
0.000000001
43
0.0000000001
44
0.0000000001
40
0
40
0
40
0
40
0
40
1
40
1
40
1
40
1
41
1
41
1
41
1
41
1
10
774.99975202941891
20
179.48854678039538
30
0
10
781.02147865600602
20
179.71375977783197
30
0
10
785.4837504699708
20
186.71786248779284
30
0
10
788.66256632232671
20
193.65885393371565
30
0
0
LINE
5
741
100
AcDbEntity
8
0
100
AcDbLine
10
987.03054013977066
20
471.1512091339111
30
0
11
987.03054013977066
21
308.53940163726799
31
0
0
SPLINE
5
742
100
AcDbEntity
8
0
100
AcDbSpline
70
4
71
3
72
8
73
4
74
0
42
0.000000001
43
0.0000000001
44
0.0000000001
40
0
40
0
40
0
40
0
40
1
40
1
40
1
40
1
41
1
41
1
41
1
41
1
10
980.14018397522
20
405.90442253875722
30
0
10
975.92485057678232
20
406.04318558044429
30
0
10
959.72594864196799
20
409.3985365875244
30
0
10
966.16420100708012
20
429.87439897308343
30
0
0
SPLINE
5
743
100
AcDbEntity
8
0
100
AcDbSpline
70
4
71
3
72
8
73
4
74
0
42
0.000000001
43
0.0000000001
44
0.0000000001
40
0
40
0
40
0
40
0
40
1
40
1
40
1
40
1
41
1
41
1
41
1
41
1
10
966.16420100708012
20
429.87439897308343
30
0
10
969.37457249145518
20
442.8175856796264
30
0
10
982.89853770141622
20
461.76232233734129
30
0
10
987.03054013977066
20
471.1512091339111
30
0
0
SPLINE
5
744
100
AcDbEntity
8
0
100
AcDbSpline
70
4
71
3
72
8
73
4
74
0
42
0.000000001
43
0.0000000001
44
0.0000000001
40
-1
40
-1
40
-1
40
-1
40
0
40
0
40
0
40
0
41
1
41
1
41
1
41
1
10
894.8727362792971
20
546.93187658996578
30
0
10
918.8994569244386
20
565.50218857307425
30
0
10
936.08168139648444
20
563.2631637580871
30
0
10
944.21258044433614
20
555.23495495376585
30
0
0
SPLINE
5
745
100
AcDbEntity
8
0
100
AcDbSpline
70
4
71
3
72
8
73
4
74
0
42
0.000000001
43
0.0000000001
44
0.0000000001
40
-1
40
-1
40
-1
40
-1
40
0
40
0
40
0
40
0
41
1
41
1
41
1
41
1
10
944.67419180297861
20
516.74610746765131
30
0
10
932.83792590332041
20
509.66044839859012
30
0
10
920.31044754333504
20
517.06039467926018
30
0
10
910.09627449340826
20
518.42115871276849
30
0
0
SPLINE
5
746
100
AcDbEntity
8
0
100
AcDbSpline
70
4
71
3
72
8
73
4
74
0
42
0.000000001
43
0.0000000001
44
0.0000000001
40
0
40
0
40
0
40
0
40
1
40
1
40
1
40
1
41
1
41
1
41
1
41
1
10
774.99975202941891
20
556.37799157943721
30
0
10
772.4341307250977
20
556.24426195144656
30
0
10
770.52358455200192
20
562.76746930541992
30
0
10
770.33412169799817
20
569.86306076240544
30
0
0
SPLINE
5
747
100
AcDbEntity
8
0
100
AcDbSpline
70
4
71
3
72
8
73
4
74
0
42
0.000000001
43
0.0000000001
44
0.0000000001
40
-1
40
-1
40
-1
40
-1
40
0
40
0
40
0
40
0
41
1
41
1
41
1
41
1
10
987.03054013977066
20
308.53940163726799
30
0
10
982.89853770141622
20
317.92828843383779
30
0
10
969.37457249145518
20
336.87302509155273
30
0
10
966.16420100708012
20
349.81621179809559
30
0
0
LINE
5
748
100
AcDbEntity
8
0
100
AcDbLine
10
987.03058316040051
20
253.24634119873031
30
0
11
987.03058316040051
21
177.81104335937476
31
0
0
SPLINE
5
749
100
AcDbEntity
8
0
100
AcDbSpline
70
4
71
3
72
8
73
4
74
0
42
0.000000001
43
0.0000000001
44
0.0000000001
40
0
40
0
40
0
40
0
40
1
40
1
40
1
40
1
41
1
41
1
41
1
41
1
10
788.66256632232671
20
193.65885393371565
30
0
10
792.07289769439717
20
189.80257071228016
30
0
10
800.67906715087906
20
181.85046540222146
30
0
10
807.49375002746592
20
177.81108638000475
30
0
0
SPLINE
5
750
100
AcDbEntity
8
0
100
AcDbSpline
70
4
71
3
72
8
73
4
74
0
42
0.000000001
43
0.0000000001
44
0.0000000001
40
0
40
0
40
0
40
0
40
1
40
1
40
1
40
1
41
1
41
1
41
1
41
1
10
981.74528367614766
20
249.42176418151845
30
0
10
983.60859319763199
20
252.74583919067368
30
0
10
984.82861524047871
20
253.18619835815417
30
0
10
987.03058316040051
20
253.24634119873031
30
0
0
SPLINE
5
751
100
AcDbEntity
8
0
100
AcDbSpline
70
4
71
3
72
8
73
4
74
0
42
0.000000001
43
0.0000000001
44
0.0000000001
40
-1
40
-1
40
-1
40
-1
40
0
40
0
40
0
40
0
41
1
41
1
41
1
41
1
10
742.50575403137213
20
177.81108638000475
30
0
10
749.32043690795911
20
181.85046540222146
30
0
10
757.926606364441
20
189.80257071228016
30
0
10
761.33693773651135
20
193.65885393371565
30
0
0
SPLINE
5
752
100
AcDbEntity
8
0
100
AcDbSpline
70
4
71
3
72
8
73
4
74
0
42
0.000000001
43
0.0000000001
44
0.0000000001
40
0
40
0
40
0
40
0
40
1
40
1
40
1
40
1
41
1
41
1
41
1
41
1
10
965.91502551879898
20
227.9006510620116
30
0
10
972.46306653137231
20
231.96265893554667
30
0
10
976.34494702758798
20
239.78772432556141
30
0
10
981.74528367614766
20
249.42176418151845
30
0
0
SPLINE
5
753
100
AcDbEntity
8
0
100
AcDbSpline
70
4
71
3
72
8
73
4
74
0
42
0.000000001
43
0.0000000001
44
0.0000000001
40
0.00026584662154554602
40
0.00026584662154554602
40
0.00026584662154554602
40
0.00026584662154554602
40
1
40
1
40
1
40
1
41
1
41
1
41
1
41
1
10
971.1065471329249
20
389.84530538558948
30
0
10
975.96835315182659
20
394.1187912982769
30
0
10
978.73485859415064
20
397.43483720847252
30
0
10
980.14018397522
20
405.90442253875722
30
0
0
SPLINE
5
754
100
AcDbEntity
8
0
100
AcDbSpline
70
4
71
3
72
8
73
4
74
0
42
0.000000001
43
0.0000000001
44
0.0000000001
40
-1
40
-1
40
-1
40
-1
40
0
40
0
40
0
40
0
41
1
41
1
41
1
41
1
10
779.66538236083989
20
569.86306076240544
30
0
10
779.47591950683602
20
562.76746930541992
30
0
10
777.56537333374035
20
556.24426195144656
30
0
10
774.99975202941891
20
556.37799157943721
30
0
0
LINE
5
755
100
AcDbEntity
8
0
100
AcDbLine
10
715.11167962341324
20
177.81108638000475
30
0
11
679.600375972748
21
177.81108638000475
31
0
0
SPLINE
5
756
100
AcDbEntity
8
0
100
AcDbSpline
70
4
71
3
72
8
73
4
74
0
42
0.000000001
43
0.0000000001
44
0.0000000001
40
-1
40
-1
40
-1
40
-1
40
0
40
0
40
0
40
0
41
1
41
1
41
1
41
1
10
910.09627449340826
20
518.42115871276849
30
0
10
900.634876425171
20
521.26394042510981
30
0
10
886.59578219299328
20
523.39838746643056
30
0
10
865.49857285003668
20
509.65083328781122
30
0
0
LINE
5
757
100
AcDbEntity
8
0
100
AcDbLine
10
807.49375002746592
20
177.81108638000475
30
0
11
742.50575403137213
21
177.81108638000475
31
0
0
SPLINE
5
758
100
AcDbEntity
8
0
100
AcDbSpline
70
4
71
3
72
8
73
4
74
0
42
0.000000001
43
0.0000000001
44
0.0000000001
40
-1
40
-1
40
-1
40
-1
40
0
40
0
40
0
40
0
41
1
41
1
41
1
41
1
10
774.99975202941891
20
586.15320407562251
30
0
10
778.56005331726078
20
583.38793478317257
30
0
10
779.83948684997574
20
576.38379980773925
30
0
10
779.66538236083989
20
569.86306076240544
30
0
0
SPLINE
5
759
100
AcDbEntity
8
0
100
AcDbSpline
70
4
71
3
72
8
73
4
74
0
42
0.000000001
43
0.0000000001
44
0.0000000001
40
-1
40
-1
40
-1
40
-1
40
0
40
0
40
0
40
0
41
1
41
1
41
1
41
1
10
933.10078195190442
20
528.04035645141596
30
0
10
945.19302059936535
20
547.03564234924318
30
0
10
960.83101956176756
20
526.41819907073966
30
0
10
944.67419180297861
20
516.74610746765131
30
0
0
SPLINE
5
760
100
AcDbEntity
8
0
100
AcDbSpline
70
4
71
3
72
8
73
4
74
0
42
0.000000001
43
0.0000000001
44
0.0000000001
40
0
40
0
40
0
40
0
40
1
40
1
40
1
40
1
41
1
41
1
41
1
41
1
10
963.98339923706067
20
177.81104335937476
30
0
10
973.96887461853044
20
177.81104335937476
30
0
10
999.12196139526372
20
203.15062456665032
30
0
10
965.91502551879898
20
227.9006510620116
30
0
0
SPLINE
5
761
100
AcDbEntity
8
0
100
AcDbSpline
70
4
71
3
72
8
73
4
74
0
42
0.000000001
43
0.0000000001
44
0.0000000001
40
-1
40
-1
40
-1
40
-1
40
-0.00026584662154492613
40
-0.00026584662154492613
40
-0.00026584662154492613
40
-0.00026584662154492613
41
1
41
1
41
1
41
1
10
980.14018397522
20
373.78618823242175
30
0
10
978.73485859415064
20
382.25577356270651
30
0
10
975.96835315182659
20
385.57181947290218
30
0
10
971.1065471329249
20
389.84530538558948
30
0
0
SPLINE
5
762
100
AcDbEntity
8
0
100
AcDbSpline
70
4
71
3
72
8
73
4
74
0
42
0.000000001
43
0.0000000001
44
0.0000000001
40
-1
40
-1
40
-1
40
-1
40
0
40
0
40
0
40
0
41
1
41
1
41
1
41
1
10
679.60037597274788
20
177.81108638000475
30
0
10
689.89695503921507
20
182.39015920410139
30
0
10
684.44254145889295
20
198.99156215209956
30
0
10
681.46939648284933
20
203.78612531127914
30
0
0
SPLINE
5
763
100
AcDbEntity
8
0
100
AcDbSpline
70
4
71
3
72
8
73
4
74
0
42
0.000000001
43
0.0000000001
44
0.0000000001
40
0
40
0
40
0
40
0
40
1
40
1
40
1
40
1
41
1
41
1
41
1
41
1
10
609.44381697158803
20
573.51441521339416
30
0
10
602.96365175781261
20
570.99648765487677
30
0
10
595.72592551727303
20
567.68117809906005
30
0
10
590.02441757164002
20
570.55171349525449
30
0
0
SPLINE
5
764
100
AcDbEntity
8
0
100
AcDbSpline
70
4
71
3
72
8
73
4
74
0
42
0.000000001
43
0.0000000001
44
0.0000000001
40
-1
40
-1
40
-1
40
-1
40
0
40
0
40
0
40
0
41
1
41
1
41
1
41
1
10
944.21258044433614
20
555.23495495376585
30
0
10
923.0923335540773
20
553.91783534927367
30
0
10
922.72575476684597
20
537.56793100357049
30
0
10
933.10078195190442
20
528.04035645141596
30
0
0
SPLINE
5
765
100
AcDbEntity
8
0
100
AcDbSpline
70
4
71
3
72
8
73
4
74
0
42
0.000000001
43
0.0000000001
44
0.0000000001
40
0
40
0
40
0
40
0
40
1
40
1
40
1
40
1
41
1
41
1
41
1
41
1
10
770.33412169799817
20
569.86306076240544
30
0
10
770.16001720886243
20
576.38379980773925
30
0
10
771.43945074157728
20
583.38793478317257
30
0
10
774.99975202941891
20
586.15320407562251
30
0
0
SPLINE
5
766
100
AcDbEntity
8
0
100
AcDbSpline
70
4
71
3
72
8
73
4
74
0
42
0.000000001
43
0.0000000001
44
0.0000000001
40
-1
40
-1
40
-1
40
-1
40
0
40
0
40
0
40
0
41
1
41
1
41
1
41
1
10
966.16420100708012
20
349.81621179809559
30
0
10
959.72594864196799
20
370.29207418365473
30
0
10
975.92485057678232
20
373.64742519073474
30
0
10
980.14018397522
20
373.78618823242175
30
0
0
LINE
5
767
100
AcDbEntity
8
0
100
AcDbLine
10
987.03058316040051
20
177.81104335937476
30
0
11
963.98339923706067
21
177.81104335937476
31
0
0
SPLINE
5
768
100
AcDbEntity
8
0
100
AcDbSpline
70
4
71
3
72
8
73
4
74
0
42
0.000000001
43
0.0000000001
44
0.0000000001
40
-1
40
-1
40
-1
40
-1
40
0
40
0
40
0
40
0
41
1
41
1
41
1
41
1
10
865.49857285003668
20
509.65083328781122
30
0
10
871.20850746154792
20
524.03477013397219
30
0
10
880.14600029907228
20
536.05197004775994
30
0
10
894.8727362792971
20
546.93187658996578
30
0
0
SPLINE
5
769
100
AcDbEntity
8
0
100
AcDbSpline
70
4
71
3
72
8
73
4
74
0
42
0.000000001
43
0.0000000001
44
0.0000000001
40
-1
40
-1
40
-1
40
-1
40
0
40
0
40
0
40
0
41
1
41
1
41
1
41
1
10
761.33693773651135
20
193.65885393371565
30
0
10
764.51575358886726
20
186.71786248779284
30
0
10
768.97802540283215
20
179.71375977783197
30
0
10
774.99975202941891
20
179.48854678039538
30
0
0
SPLINE
5
770
100
AcDbEntity
8
0
100
AcDbSpline
70
4
71
3
72
8
73
4
74
0
42
0.000000001
43
0.0000000001
44
0.0000000001
40
0
40
0
40
0
40
0
40
1
40
1
40
1
40
1
41
1
41
1
41
1
41
1
10
590.02441757164002
20
570.55171349525449
30
0
10
586.55837986145025
20
572.0156248664855
30
0
10
584.33921444473265
20
577.59575010490414
30
0
10
586.13826190032955
20
581.62783175277707
30
0
0
SPLINE
5
771
100
AcDbEntity
8
0
100
AcDbSpline
70
4
71
3
72
8
73
4
74
0
42
0.000000001
43
0.0000000001
44
0.0000000001
40
0
40
0
40
0
40
0
40
1
40
1
40
1
40
1
41
1
41
1
41
1
41
1
10
727.08251405334477
20
543.13416595611568
30
0
10
725.56721991729751
20
533.29149755554204
30
0
10
720.15399859008789
20
530.51369850463868
30
0
10
715.18724535980232
20
531.84313276443481
30
0
0
SPLINE
5
772
100
AcDbEntity
8
0
100
AcDbSpline
70
4
71
3
72
8
73
4
74
0
42
0.000000001
43
0.0000000001
44
0.0000000001
40
0
40
0
40
0
40
0
40
1
40
1
40
1
40
1
41
1
41
1
41
1
41
1
10
586.13826190032955
20
581.62783175277707
30
0
10
588.52260502548222
20
586.97173609008792
30
0
10
596.73965288467423
20
589.97349516258237
30
0
10
606.45956191787718
20
580.76398288230894
30
0
0
SPLINE
5
773
100
AcDbEntity
8
0
100
AcDbSpline
70
4
71
3
72
8
73
4
74
0
42
0.000000001
43
0.0000000001
44
0.0000000001
40
0
40
0
40
0
40
0
40
1
40
1
40
1
40
1
41
1
41
1
41
1
41
1
10
763.13816848907481
20
555.67036674880978
30
0
10
755.79639685516349
20
555.4537901428223
30
0
10
753.2266025497438
20
562.87495634918207
30
0
10
741.33782997131357
20
558.12810306854249
30
0
0
SPLINE
5
774
100
AcDbEntity
8
0
100
AcDbSpline
70
4
71
3
72
8
73
4
74
0
42
0.000000001
43
0.0000000001
44
0.0000000001
40
0
40
0
40
0
40
0
40
1
40
1
40
1
40
1
41
1
41
1
41
1
41
1
10
606.45956191787718
20
580.76398288230894
30
0
10
609.43270689392091
20
585.5585245311737
30
0
10
608.90627420120245
20
597.30049996528624
30
0
10
598.60968975715639
20
601.87955127906798
30
0
0
SPLINE
5
775
100
AcDbEntity
8
0
100
AcDbSpline
70
4
71
3
72
8
73
4
74
0
42
0.000000001
43
0.0000000001
44
0.0000000001
40
0
40
0
40
0
40
0
40
1
40
1
40
1
40
1
41
1
41
1
41
1
41
1
10
605.78689134902959
20
555.23495495376585
30
0
10
613.91779039688117
20
563.2631637580871
30
0
10
631.10000411376961
20
565.50218857307425
30
0
10
655.12675702438344
20
546.93187658996578
30
0
0
SPLINE
5
776
100
AcDbEntity
8
0
100
AcDbSpline
70
4
71
3
72
8
73
4
74
0
42
0.000000001
43
0.0000000001
44
0.0000000001
40
0
40
0
40
0
40
0
40
1
40
1
40
1
40
1
41
1
41
1
41
1
41
1
10
720.4136065811158
20
582.01144670944211
30
0
10
738.64366302490237
20
590.533817356491
30
0
10
758.46384799041755
20
578.56709139671329
30
0
10
763.13816848907481
20
555.67036674880978
30
0
0
SPLINE
5
777
100
AcDbEntity
8
0
100
AcDbSpline
70
4
71
3
72
8
73
4
74
0
42
0.000000001
43
0.0000000001
44
0.0000000001
40
0
40
0
40
0
40
0
40
1
40
1
40
1
40
1
41
1
41
1
41
1
41
1
10
639.90320805511476
20
518.42115871276849
30
0
10
629.68903500518809
20
517.06039467926018
30
0
10
617.16156740036001
20
509.66044839859012
30
0
10
605.32527999038689
20
516.74610746765131
30
0
0
SPLINE
5
778
100
AcDbEntity
8
0
100
AcDbSpline
70
4
71
3
72
8
73
4
74
0
42
0.000000001
43
0.0000000001
44
0.0000000001
40
0
40
0
40
0
40
0
40
1
40
1
40
1
40
1
41
1
41
1
41
1
41
1
10
616.89867908630379
20
528.04035645141596
30
0
10
627.27370627136236
20
537.56793100357049
30
0
10
626.90712748413091
20
553.91783534927367
30
0
10
605.78689134902959
20
555.23495495376585
30
0
0
SPLINE
5
779
100
AcDbEntity
8
0
100
AcDbSpline
70
4
71
3
72
8
73
4
74
0
42
0.000000001
43
0.0000000001
44
0.0000000001
40
0
40
0
40
0
40
0
40
1
40
1
40
1
40
1
41
1
41
1
41
1
41
1
10
741.33782997131357
20
558.12810306854249
30
0
10
737.06684938812259
20
556.42281907577512
30
0
10
734.47285597839357
20
549.82445468139645
30
0
10
732.8830931320191
20
542.42554089584348
30
0
0
SPLINE
5
780
100
AcDbEntity
8
0
100
AcDbSpline
70
4
71
3
72
8
73
4
74
0
42
0.000000001
43
0.0000000001
44
0.0000000001
40
0
40
0
40
0
40
0
40
1
40
1
40
1
40
1
41
1
41
1
41
1
41
1
10
705.47110063171408
20
558.33333298339835
30
0
10
706.40449772796637
20
566.39026343574517
30
0
10
710.22608481140151
20
575.18809517593377
30
0
10
720.4136065811158
20
582.01144670944211
30
0
0
SPLINE
5
781
100
AcDbEntity
8
0
100
AcDbSpline
70
4
71
3
72
8
73
4
74
0
42
0.000000001
43
0.0000000001
44
0.0000000001
40
0
40
0
40
0
40
0
40
1
40
1
40
1
40
1
41
1
41
1
41
1
41
1
10
656.54918037567143
20
601.87955127906798
30
0
10
643.04673623580936
20
598.05694245567327
30
0
10
639.86356454467773
20
581.84178410034178
30
0
10
640.84944680938725
20
571.41890184211729
30
0
0
SPLINE
5
782
100
AcDbEntity
8
0
100
AcDbSpline
70
4
71
3
72
8
73
4
74
0
42
0.000000001
43
0.0000000001
44
0.0000000001
40
0
40
0
40
0
40
0
40
1
40
1
40
1
40
1
41
1
41
1
41
1
41
1
10
655.12675702438344
20
546.93187658996578
30
0
10
669.85349300460825
20
536.05197004775994
30
0
10
678.79098584213261
20
524.03477013397219
30
0
10
684.50092045364386
20
509.65083328781122
30
0
0
SPLINE
5
783
100
AcDbEntity
8
0
100
AcDbSpline
70
4
71
3
72
8
73
4
74
0
42
0.000000001
43
0.0000000001
44
0.0000000001
40
0
40
0
40
0
40
0
40
1
40
1
40
1
40
1
41
1
41
1
41
1
41
1
10
684.50092045364386
20
509.65083328781122
30
0
10
663.40370035552974
20
523.39838746643056
30
0
10
649.36461687850965
20
521.26394042510981
30
0
10
639.90320805511476
20
518.42115871276849
30
0
0
SPLINE
5
784
100
AcDbEntity
8
0
100
AcDbSpline
70
4
71
3
72
8
73
4
74
0
42
0.000000001
43
0.0000000001
44
0.0000000001
40
0
40
0
40
0
40
0
40
1
40
1
40
1
40
1
41
1
41
1
41
1
41
1
10
732.8830931320191
20
542.42554089584348
30
0
10
730.71616551513671
20
542.86216802368153
30
0
10
729.01482866516119
20
543.44892639465331
30
0
10
727.08251405334477
20
543.13416595611568
30
0
0
SPLINE
5
785
100
AcDbEntity
8
0
100
AcDbSpline
70
4
71
3
72
8
73
4
74
0
42
0.000000001
43
0.0000000001
44
0.0000000001
40
0
40
0
40
0
40
0
40
1
40
1
40
1
40
1
41
1
41
1
41
1
41
1
10
715.18724535980232
20
531.84313276443481
30
0
10
704.82144609985357
20
534.96481722030637
30
0
10
704.54351132049567
20
547.31045813293451
30
0
10
705.47110063171408
20
558.33333298339835
30
0
0
SPLINE
5
786
100
AcDbEntity
8
0
100
AcDbSpline
70
4
71
3
72
8
73
4
74
0
42
0.000000001
43
0.0000000001
44
0.0000000001
40
0
40
0
40
0
40
0
40
1
40
1
40
1
40
1
41
1
41
1
41
1
41
1
10
605.32527999038689
20
516.74610746765131
30
0
10
589.16846836433422
20
526.41819907073966
30
0
10
604.80646194915767
20
547.03564234924318
30
0
10
616.89867908630379
20
528.04035645141596
30
0
0
LINE
5
787
100
AcDbEntity
8
0
100
AcDbLine
10
598.60968975715639
20
601.87955127906798
30
0
11
656.54918037567143
21
601.87955127906798
31
0
0
SPLINE
5
788
100
AcDbEntity
8
0
100
AcDbSpline
70
4
71
3
72
8
73
4
74
0
42
0.000000001
43
0.0000000001
44
0.0000000001
40
0
40
0
40
0
40
0
40
1
40
1
40
1
40
1
41
1
41
1
41
1
41
1
10
640.84944680938725
20
571.41890184211729
30
0
10
630.28038582839963
20
578.24171024017335
30
0
10
623.54315084075938
20
578.14379528656002
30
0
10
609.44381697158803
20
573.51441521339416
30
0
0
SPLINE
5
789
100
AcDbEntity
8
0
100
AcDbSpline
70
4
71
3
72
8
73
4
74
0
42
0.000000001
43
0.0000000001
44
0.0000000001
40
0
40
0
40
0
40
0
40
1
40
1
40
1
40
1
41
1
41
1
41
1
41
1
10
681.46939648284933
20
575.90453923568725
30
0
10
684.44254145889295
20
580.69908626213066
30
0
10
689.89695503921507
20
597.30049458770748
30
0
10
679.60037597274788
20
601.87955127906798
30
0
0
SPLINE
5
790
100
AcDbEntity
8
0
100
AcDbSpline
70
4
71
3
72
8
73
4
74
0
42
0.000000001
43
0.0000000001
44
0.0000000001
40
0
40
0
40
0
40
0
40
0.99751686591409483
40
0.99751686591409483
40
0.99751686591409483
40
0.99751686591409483
41
1
41
1
41
1
41
1
10
603.24596388626105
20
358.11073981170648
30
0
10
604.811491637534
20
369.63202331116906
30
0
10
599.866808234372
20
383.58298172159425
30
0
10
588.09694081619614
20
389.84530538557095
30
0
0
SPLINE
5
791
100
AcDbEntity
8
0
100
AcDbSpline
70
4
71
3
72
8
73
4
74
0
42
0.000000001
43
0.0000000001
44
0.0000000001
40
-1
40
-1
40
-1
40
-1
40
0
40
0
40
0
40
0
41
1
41
1
41
1
41
1
10
770.33412169799817
20
209.8275553863524
30
0
10
770.52358455200192
20
216.9231629760742
30
0
10
772.4341307250977
20
223.44638108520485
30
0
10
774.99975202941891
20
223.31262994689922
30
0
0
SPLINE
5
792
100
AcDbEntity
8
0
100
AcDbSpline
70
4
71
3
72
8
73
4
74
0
42
0.000000001
43
0.0000000001
44
0.0000000001
40
-1
40
-1
40
-1
40
-1
40
0
40
0
40
0
40
0
41
1
41
1
41
1
41
1
10
732.68633828125007
20
322.85430112762435
30
0
10
708.1053183303834
20
322.04940665283198
30
0
10
703.55106840972906
20
300.71022777709948
30
0
10
683.07897032928486
20
297.88854768371573
30
0
0
SPLINE
5
793
100
AcDbEntity
8
0
100
AcDbSpline
70
4
71
3
72
8
73
4
74
0
42
0.000000001
43
0.0000000001
44
0.0000000001
40
0
40
0
40
0
40
0
40
1
40
1
40
1
40
1
41
1
41
1
41
1
41
1
10
684.60293312225349
20
465.5827478637695
30
0
10
680.4014631217957
20
461.15136486206046
30
0
10
670.69084654464734
20
458.96873471527101
30
0
10
666.57589103088389
20
464.26416555786125
30
0
0
SPLINE
5
794
100
AcDbEntity
8
0
100
AcDbSpline
70
4
71
3
72
8
73
4
74
0
42
0.000000001
43
0.0000000001
44
0.0000000001
40
-1
40
-1
40
-1
40
-1
40
0
40
0
40
0
40
0
41
1
41
1
41
1
41
1
10
854.02735850524903
20
559.52538086166373
30
0
10
857.80409658203121
20
554.29944984664917
30
0
10
869.77435023345959
20
550.34896220092764
30
0
10
881.92498938598646
20
552.06103269805897
30
0
0
SPLINE
5
795
100
AcDbEntity
8
0
100
AcDbSpline
70
4
71
3
72
8
73
4
74
0
42
0.000000001
43
0.0000000001
44
0.0000000001
40
-1
40
-1
40
-1
40
-1
40
0
40
0
40
0
40
0
41
1
41
1
41
1
41
1
10
684.60293312225349
20
314.06847752075186
30
0
10
690.15585318984995
20
304.96541978912342
30
0
10
702.01699576873784
20
316.82657312316883
30
0
10
693.92148118896489
20
330.03240077514636
30
0
0
SPLINE
5
796
100
AcDbEntity
8
0
100
AcDbSpline
70
4
71
3
72
8
73
4
74
0
42
0.000000001
43
0.0000000001
44
0.0000000001
40
-1
40
-1
40
-1
40
-1
40
0
40
0
40
0
40
0
41
1
41
1
41
1
41
1
10
697.07029015197759
20
516.92115841064447
30
0
10
702.90291959991453
20
510.80475413284296
30
0
10
710.73600833740238
20
506.0363797821044
30
0
10
720.72004252777106
20
509.65596349792474
30
0
0
SPLINE
5
797
100
AcDbEntity
8
0
100
AcDbSpline
70
4
71
3
72
8
73
4
74
0
42
0.000000001
43
0.0000000001
44
0.0000000001
40
0
40
0
40
0
40
0
40
1
40
1
40
1
40
1
41
1
41
1
41
1
41
1
10
765.97477674102788
20
453.46542818908688
30
0
10
761.87686815185555
20
452.52000682678215
30
0
10
747.6456222763062
20
454.0773751388549
30
0
10
759.96004096679701
20
436.67099167480455
30
0
0
SPLINE
5
798
100
AcDbEntity
8
0
100
AcDbSpline
70
4
71
3
72
8
73
4
74
0
42
0.000000001
43
0.0000000001
44
0.0000000001
40
0
40
0
40
0
40
0
40
1
40
1
40
1
40
1
41
1
41
1
41
1
41
1
10
736.86639476318362
20
246.89348478393532
30
0
10
738.11367037506113
20
254.20866966857901
30
0
10
736.75548757934575
20
260.11424059448234
30
0
10
730.49082345581064
20
264.46418554382308
30
0
0
SPLINE
5
799
100
AcDbEntity
8
0
100
AcDbSpline
70
4
71
3
72
8
73
4
74
0
42
0.000000001
43
0.0000000001
44
0.0000000001
40
0
40
0
40
0
40
0
40
1
40
1
40
1
40
1
41
1
41
1
41
1
41
1
10
693.92148118896489
20
449.61882460937488
30
0
10
702.01699576873784
20
462.82465226135241
30
0
10
690.15585318984995
20
474.68580559539794
30
0
10
684.60293312225349
20
465.5827478637695
30
0
0
SPLINE
5
800
100
AcDbEntity
8
0
100
AcDbSpline
70
4
71
3
72
8
73
4
74
0
42
0.000000001
43
0.0000000001
44
0.0000000001
40
-1
40
-1
40
-1
40
-1
40
0
40
0
40
0
40
0
41
1
41
1
41
1
41
1
10
707.58321996612551
20
484.86805733795165
30
0
10
701.25914435272216
20
493.90589579467769
30
0
10
696.87394399719233
20
497.37694003067014
30
0
10
697.07029015197759
20
516.92115841064447
30
0
0
SPLINE
5
801
100
AcDbEntity
8
0
100
AcDbSpline
70
4
71
3
72
8
73
4
74
0
42
0.000000001
43
0.0000000001
44
0.0000000001
40
-1
40
-1
40
-1
40
-1
40
0
40
0
40
0
40
0
41
1
41
1
41
1
41
1
10
568.25420962753299
20
249.42176418151845
30
0
10
573.65453552093516
20
239.78772432556141
30
0
10
577.53642677230823
20
231.96265893554667
30
0
10
584.08447854003907
20
227.9006510620116
30
0
0
SPLINE
5
802
100
AcDbEntity
8
0
100
AcDbSpline
70
4
71
3
72
8
73
4
74
0
42
0.000000001
43
0.0000000001
44
0.0000000001
40
0
40
0
40
0
40
0
40
1
40
1
40
1
40
1
41
1
41
1
41
1
41
1
10
751.05315730743416
20
234.9056572052001
30
0
10
745.25614894104012
20
236.44097744445793
30
0
10
743.70585752258307
20
240.11429392700194
30
0
10
745.34561034088142
20
247.42810215148907
30
0
0
SPLINE
5
803
100
AcDbEntity
8
0
100
AcDbSpline
70
4
71
3
72
8
73
4
74
0
42
0.000000001
43
0.0000000001
44
0.0000000001
40
-1
40
-1
40
-1
40
-1
40
0
40
0
40
0
40
0
41
1
41
1
41
1
41
1
10
743.97634973297113
20
497.69323845672602
30
0
10
752.41383529968277
20
493.58271406784047
30
0
10
752.08657736816406
20
482.50531056900024
30
0
10
743.55743634948738
20
477.74799252014157
30
0
0
SPLINE
5
804
100
AcDbEntity
8
0
100
AcDbSpline
70
4
71
3
72
8
73
4
74
0
42
0.000000001
43
0.0000000001
44
0.0000000001
40
0
40
0
40
0
40
0
40
1
40
1
40
1
40
1
41
1
41
1
41
1
41
1
10
743.39709846191408
20
399.9784813446044
30
0
10
738.55499750671402
20
401.78033589630115
30
0
10
732.8810281417849
20
405.71878852081284
30
0
10
724.26698591003424
20
408.83038463897691
30
0
0
SPLINE
5
805
100
AcDbEntity
8
0
100
AcDbSpline
70
4
71
3
72
8
73
4
74
0
42
0.000000001
43
0.0000000001
44
0.0000000001
40
0
40
0
40
0
40
0
40
1
40
1
40
1
40
1
41
1
41
1
41
1
41
1
10
714.76000748443607
20
450.0816405456543
30
0
10
713.76952201232916
20
449.76462152404781
30
0
10
716.12580493164069
20
441.33870850677482
30
0
10
723.8509979293824
20
432.88678951873777
30
0
0
SPLINE
5
806
100
AcDbEntity
8
0
100
AcDbSpline
70
4
71
3
72
8
73
4
74
0
42
0.000000001
43
0.0000000001
44
0.0000000001
40
0
40
0
40
0
40
0
40
1
40
1
40
1
40
1
41
1
41
1
41
1
41
1
10
829.27944002075208
20
509.65596349792474
30
0
10
839.26347421112064
20
506.0363797821044
30
0
10
847.09656294860849
20
510.80475413284296
30
0
10
852.92919239654555
20
516.92115841064447
30
0
0
SPLINE
5
807
100
AcDbEntity
8
0
100
AcDbSpline
70
4
71
3
72
8
73
4
74
0
42
0.000000001
43
0.0000000001
44
0.0000000001
40
0
40
0
40
0
40
0
40
1
40
1
40
1
40
1
41
1
41
1
41
1
41
1
10
611.88029034500119
20
466.52685709686273
30
0
10
644.81250723419191
20
471.68995648193356
30
0
10
639.869920842743
20
444.06451712646481
30
0
10
610.95951980361951
20
444.83542530364986
30
0
0
SPLINE
5
808
100
AcDbEntity
8
0
100
AcDbSpline
70
4
71
3
72
8
73
4
74
0
42
0.000000001
43
0.0000000001
44
0.0000000001
40
-1
40
-1
40
-1
40
-1
40
0
40
0
40
0
40
0
41
1
41
1
41
1
41
1
10
586.13826190032955
20
198.06278977355936
30
0
10
584.33921444473265
20
202.09489830932597
30
0
10
586.55837986145025
20
207.67501817016586
30
0
10
590.02441757164002
20
209.13892416381827
30
0
0
SPLINE
5
809
100
AcDbEntity
8
0
100
AcDbSpline
70
4
71
3
72
8
73
4
74
0
42
0.000000001
43
0.0000000001
44
0.0000000001
40
-1
40
-1
40
-1
40
-1
40
0
40
0
40
0
40
0
41
1
41
1
41
1
41
1
10
723.8509979293824
20
346.76445737609856
30
0
10
716.12580493164069
20
338.31253838806151
30
0
10
713.76952201232916
20
329.88662537078835
30
0
10
714.76000748443607
20
329.56960634918204
30
0
0
SPLINE
5
810
100
AcDbEntity
8
0
100
AcDbSpline
70
4
71
3
72
8
73
4
74
0
42
0.000000001
43
0.0000000001
44
0.0000000001
40
0
40
0
40
0
40
0
40
1
40
1
40
1
40
1
41
1
41
1
41
1
41
1
10
723.8509979293824
20
432.88678951873777
30
0
10
699.29430614471448
20
416.65790220489498
30
0
10
736.68723535003664
20
414.24375653839104
30
0
10
747.32602201690679
20
410.0387911117553
30
0
0
SPLINE
5
811
100
AcDbEntity
8
0
100
AcDbSpline
70
4
71
3
72
8
73
4
74
0
42
0.000000001
43
0.0000000001
44
0.0000000001
40
0
40
0
40
0
40
0
40
1
40
1
40
1
40
1
41
1
41
1
41
1
41
1
10
610.95951980361951
20
444.83542530364986
30
0
10
597.02675105819708
20
445.31482569274897
30
0
10
584.4935509544373
20
452.88456364440913
30
0
10
577.60729250488282
20
470.06700321960443
30
0
0
SPLINE
5
812
100
AcDbEntity
8
0
100
AcDbSpline
70
4
71
3
72
8
73
4
74
0
42
0.000000001
43
0.0000000001
44
0.0000000001
40
0
40
0
40
0
40
0
40
1
40
1
40
1
40
1
41
1
41
1
41
1
41
1
10
774.99975202941891
20
402.15831515045153
30
0
10
781.80193741302503
20
402.15831515045153
30
0
10
787.31617117919927
20
396.64405987396236
30
0
10
787.31617117919927
20
389.8418960006714
30
0
0
SPLINE
5
813
100
AcDbEntity
8
0
100
AcDbSpline
70
4
71
3
72
8
73
4
74
0
42
0.000000001
43
0.0000000001
44
0.0000000001
40
-1
40
-1
40
-1
40
-1
40
0
40
0
40
0
40
0
41
1
41
1
41
1
41
1
10
606.45956191787718
20
198.92664402160625
30
0
10
596.73965288467423
20
189.71713174133285
30
0
10
588.52260502548222
20
192.71889619140609
30
0
10
586.13826190032955
20
198.06278977355936
30
0
0
SPLINE
5
814
100
AcDbEntity
8
0
100
AcDbSpline
70
4
71
3
72
8
73
4
74
0
42
0.000000001
43
0.0000000001
44
0.0000000001
40
-1
40
-1
40
-1
40
-1
40
0
40
0
40
0
40
0
41
1
41
1
41
1
41
1
10
720.72004252777106
20
509.65596349792474
30
0
10
714.57499726562503
20
497.66343591537469
30
0
10
719.58459904327401
20
489.51337117691037
30
0
10
726.85755917968766
20
488.87037408752434
30
0
0
SPLINE
5
815
100
AcDbEntity
8
0
100
AcDbSpline
70
4
71
3
72
8
73
4
74
0
42
0.000000001
43
0.0000000001
44
0.0000000001
40
-1
40
-1
40
-1
40
-1
40
0
40
0
40
0
40
0
41
1
41
1
41
1
41
1
10
693.92148118896489
20
330.03240077514636
30
0
10
709.3087989410401
20
332.74237780303952
30
0
10
719.23215253295905
20
363.23589500122063
30
0
10
694.03740027618426
20
381.79471509857166
30
0
0
SPLINE
5
816
100
AcDbEntity
8
0
100
AcDbSpline
70
4
71
3
72
8
73
4
74
0
42
0.000000001
43
0.0000000001
44
0.0000000001
40
-1
40
-1
40
-1
40
-1
40
0
40
0
40
0
40
0
41
1
41
1
41
1
41
1
10
881.92498938598646
20
552.06103269805897
30
0
10
869.77260789794946
20
541.20124905548096
30
0
10
862.64912294006365
20
534.58355764312739
30
0
10
854.9389871627809
20
526.57574061737057
30
0
0
SPLINE
5
817
100
AcDbEntity
8
0
100
AcDbSpline
70
4
71
3
72
8
73
4
74
0
42
0.000000001
43
0.0000000001
44
0.0000000001
40
-1
40
-1
40
-1
40
-1
40
0
40
0
40
0
40
0
41
1
41
1
41
1
41
1
10
640.84944680938725
20
208.27171430664052
30
0
10
639.86356454467773
20
197.84884818115222
30
0
10
643.04673623580936
20
181.63368444824201
30
0
10
656.54918037567143
20
177.81108638000475
30
0
0
SPLINE
5
818
100
AcDbEntity
8
0
100
AcDbSpline
70
4
71
3
72
8
73
4
74
0
42
0.000000001
43
0.0000000001
44
0.0000000001
40
-1
40
-1
40
-1
40
-1
40
-0.00037183744068488997
40
-0.00037183744068488997
40
-0.00037183744068488997
40
-0.00037183744068488997
41
1
41
1
41
1
41
1
10
603.24596388626105
20
421.57987095947254
30
0
10
618.48922490363202
20
403.13961325639741
30
0
10
640.17907349283792
20
392.90317911620787
30
0
10
651.56120095870745
20
389.84530538558954
30
0
0
SPLINE
5
819
100
AcDbEntity
8
0
100
AcDbSpline
70
4
71
3
72
8
73
4
74
0
42
0.000000001
43
0.0000000001
44
0.0000000001
40
-1
40
-1
40
-1
40
-1
40
0
40
0
40
0
40
0
41
1
41
1
41
1
41
1
10
590.02441757164002
20
209.13892416381827
30
0
10
595.72592551727303
20
212.00947569274888
30
0
10
602.96365175781261
20
208.69413387145983
30
0
10
609.44381697158803
20
206.1762224456786
30
0
0
SPLINE
5
820
100
AcDbEntity
8
0
100
AcDbSpline
70
4
71
3
72
8
73
4
74
0
42
0.000000001
43
0.0000000001
44
0.0000000001
40
0
40
0
40
0
40
0
40
1
40
1
40
1
40
1
41
1
41
1
41
1
41
1
10
577.60729250488282
20
470.06700321960443
30
0
10
570.78307518119811
20
488.04592673645016
30
0
10
575.90245485115042
20
513.29200260467519
30
0
10
582.21205940017705
20
526.91549604187014
30
0
0
SPLINE
5
821
100
AcDbEntity
8
0
100
AcDbSpline
70
4
71
3
72
8
73
4
74
0
42
0.000000001
43
0.0000000001
44
0.0000000001
40
-1
40
-1
40
-1
40
-1
40
0
40
0
40
0
40
0
41
1
41
1
41
1
41
1
10
609.44381697158803
20
206.1762224456786
30
0
10
623.54315084075938
20
201.54681548461895
30
0
10
630.28038582839963
20
201.44890053100568
30
0
10
640.84944680938725
20
208.27171430664052
30
0
0
SPLINE
5
822
100
AcDbEntity
8
0
100
AcDbSpline
70
4
71
3
72
8
73
4
74
0
42
0.000000001
43
0.0000000001
44
0.0000000001
40
-1
40
-1
40
-1
40
-1
40
0
40
0
40
0
40
0
41
1
41
1
41
1
41
1
10
759.95427620239275
20
362.54646789703361
30
0
10
763.64955471649182
20
367.68349678039544
30
0
10
768.34835395355242
20
367.50205727386458
30
0
10
767.50351482391352
20
359.31258563842761
30
0
0
SPLINE
5
823
100
AcDbEntity
8
0
100
AcDbSpline
70
4
71
3
72
8
73
4
74
0
42
0.000000001
43
0.0000000001
44
0.0000000001
40
0
40
0
40
0
40
0
40
1
40
1
40
1
40
1
41
1
41
1
41
1
41
1
10
774.99975202941891
20
377.52547685089098
30
0
10
768.19758815612795
20
377.52547685089098
30
0
10
762.68333287963878
20
383.03973212738026
30
0
10
762.68333287963878
20
389.8418960006714
30
0
0
SPLINE
5
824
100
AcDbEntity
8
0
100
AcDbSpline
70
4
71
3
72
8
73
4
74
0
42
0.000000001
43
0.0000000001
44
0.0000000001
40
0
40
0
40
0
40
0
40
1
40
1
40
1
40
1
41
1
41
1
41
1
41
1
10
852.92919239654555
20
516.92115841064447
30
0
10
853.12553855133069
20
497.37694003067014
30
0
10
848.74033819580086
20
493.90589579467769
30
0
10
842.41626258239762
20
484.86805733795165
30
0
0
SPLINE
5
825
100
AcDbEntity
8
0
100
AcDbSpline
70
4
71
3
72
8
73
4
74
0
42
0.000000001
43
0.0000000001
44
0.0000000001
40
-1
40
-1
40
-1
40
-1
40
0
40
0
40
0
40
0
41
1
41
1
41
1
41
1
10
726.85755917968766
20
488.87037408752434
30
0
10
730.90945720520028
20
498.51669633331301
30
0
10
738.58601538085952
20
500.22831511383049
30
0
10
743.97634973297113
20
497.69323845672602
30
0
0
LINE
5
826
100
AcDbEntity
8
0
100
AcDbLine
10
679.60037597274788
20
601.87955127906798
30
0
11
715.11167962341324
21
601.87955127906798
31
0
0
SPLINE
5
827
100
AcDbEntity
8
0
100
AcDbSpline
70
4
71
3
72
8
73
4
74
0
42
0.000000001
43
0.0000000001
44
0.0000000001
40
-1
40
-1
40
-1
40
-1
40
0
40
0
40
0
40
0
41
1
41
1
41
1
41
1
10
724.26698591003424
20
370.82086225585925
30
0
10
732.8810281417849
20
373.93245837402333
30
0
10
738.55499750671402
20
377.87091099853512
30
0
10
743.39709846191408
20
379.67276555023182
30
0
0
SPLINE
5
828
100
AcDbEntity
8
0
100
AcDbSpline
70
4
71
3
72
8
73
4
74
0
42
0.000000001
43
0.0000000001
44
0.0000000001
40
0
40
0
40
0
40
0
40
1
40
1
40
1
40
1
41
1
41
1
41
1
41
1
10
787.31617117919927
20
389.8418960006714
30
0
10
787.31617117919927
20
383.03971061706534
30
0
10
781.80191590271011
20
377.52547685089098
30
0
10
774.99975202941891
20
377.52547685089098
30
0
0
SPLINE
5
829
100
AcDbEntity
8
0
100
AcDbSpline
70
4
71
3
72
8
73
4
74
0
42
0.000000001
43
0.0000000001
44
0.0000000001
40
0
40
0
40
0
40
0
40
1
40
1
40
1
40
1
41
1
41
1
41
1
41
1
10
654.10569463958745
20
475.84539440841667
30
0
10
637.88800344467177
20
494.09713324966418
30
0
10
609.83678891525278
20
487.05109618072504
30
0
10
611.88029034500119
20
466.52685709686273
30
0
0
SPLINE
5
830
100
AcDbEntity
8
0
100
AcDbSpline
70
4
71
3
72
8
73
4
74
0
42
0.000000001
43
0.0000000001
44
0.0000000001
40
-1
40
-1
40
-1
40
-1
40
0
40
0
40
0
40
0
41
1
41
1
41
1
41
1
10
584.08447854003907
20
227.9006510620116
30
0
10
550.87751577568054
20
203.15062456665032
30
0
10
576.03062406272886
20
177.81104335937476
30
0
10
586.01608331146247
20
177.81104335937476
30
0
0
SPLINE
5
831
100
AcDbEntity
8
0
100
AcDbSpline
70
4
71
3
72
8
73
4
74
0
42
0.000000001
43
0.0000000001
44
0.0000000001
40
0
40
0
40
0
40
0
40
1
40
1
40
1
40
1
41
1
41
1
41
1
41
1
10
666.57589103088389
20
464.26416555786125
30
0
10
663.79804895935081
20
470.2574125274657
30
0
10
662.63927753829967
20
478.94795619430539
30
0
10
683.07897032928486
20
481.76267770080557
30
0
0
SPLINE
5
832
100
AcDbEntity
8
0
100
AcDbSpline
70
4
71
3
72
8
73
4
74
0
42
0.000000001
43
0.0000000001
44
0.0000000001
40
-1
40
-1
40
-1
40
-1
40
0
40
0
40
0
40
0
41
1
41
1
41
1
41
1
10
769.62443187713632
20
306.38660629730219
30
0
10
761.47322709198011
20
312.52543507843006
30
0
10
744.11132695922856
20
323.22840852508534
30
0
10
732.68633828125007
20
322.85430112762435
30
0
0
SPLINE
5
833
100
AcDbEntity
8
0
100
AcDbSpline
70
4
71
3
72
8
73
4
74
0
42
0.000000001
43
0.0000000001
44
0.0000000001
40
-1
40
-1
40
-1
40
-1
40
0
40
0
40
0
40
0
41
1
41
1
41
1
41
1
10
767.50351482391352
20
359.31258563842761
30
0
10
767.09537810821541
20
354.94476561737059
30
0
10
765.03793799438483
20
349.04134572296141
30
0
10
759.96004096679701
20
342.98025522003161
30
0
0
SPLINE
5
834
100
AcDbEntity
8
0
100
AcDbSpline
70
4
71
3
72
8
73
4
74
0
42
0.000000001
43
0.0000000001
44
0.0000000001
40
-1
40
-1
40
-1
40
-1
40
0
40
0
40
0
40
0
41
1
41
1
41
1
41
1
10
694.03740027618426
20
381.79471509857166
30
0
10
700.29247079925551
20
385.00663532562243
30
0
10
706.9629270141603
20
387.16162471771236
30
0
10
711.96816219787604
20
375.563284411621
30
0
0
SPLINE
5
835
100
AcDbEntity
8
0
100
AcDbSpline
70
4
71
3
72
8
73
4
74
0
42
0.000000001
43
0.0000000001
44
0.0000000001
40
0
40
0
40
0
40
0
40
1
40
1
40
1
40
1
41
1
41
1
41
1
41
1
10
724.26698591003424
20
408.83038463897691
30
0
10
711.36529260101327
20
416.25183047943108
30
0
10
711.43535169677739
20
408.85991830139147
30
0
10
711.96816219787604
20
404.08796248321522
30
0
0
SPLINE
5
836
100
AcDbEntity
8
0
100
AcDbSpline
70
4
71
3
72
8
73
4
74
0
42
0.000000001
43
0.0000000001
44
0.0000000001
40
-1
40
-1
40
-1
40
-1
40
0
40
0
40
0
40
0
41
1
41
1
41
1
41
1
10
711.96816219787604
20
375.563284411621
30
0
10
711.43535169677739
20
370.79132859344469
30
0
10
711.36529260101327
20
363.3994164154052
30
0
10
724.26698591003424
20
370.82086225585925
30
0
0
SPLINE
5
837
100
AcDbEntity
8
0
100
AcDbSpline
70
4
71
3
72
8
73
4
74
0
42
0.000000001
43
0.0000000001
44
0.0000000001
40
0
40
0
40
0
40
0
40
1
40
1
40
1
40
1
41
1
41
1
41
1
41
1
10
730.49082345581064
20
264.46418554382308
30
0
10
746.3283090789796
20
260.8055390960692
30
0
10
756.3232059783935
20
271.24724825744613
30
0
10
760.02332431335458
20
280.04668789367662
30
0
0
SPLINE
5
838
100
AcDbEntity
8
0
100
AcDbSpline
70
4
71
3
72
8
73
4
74
0
42
0.000000001
43
0.0000000001
44
0.0000000001
40
0
40
0
40
0
40
0
40
1
40
1
40
1
40
1
41
1
41
1
41
1
41
1
10
694.03740027618426
20
397.85653179626451
30
0
10
719.23215253295905
20
416.41535189361559
30
0
10
709.3087989410401
20
446.90886909179682
30
0
10
693.92148118896489
20
449.61882460937488
30
0
0
SPLINE
5
839
100
AcDbEntity
8
0
100
AcDbSpline
70
4
71
3
72
8
73
4
74
0
42
0.000000001
43
0.0000000001
44
0.0000000001
40
0
40
0
40
0
40
0
40
1
40
1
40
1
40
1
41
1
41
1
41
1
41
1
10
823.14192336883548
20
488.87037408752434
30
0
10
830.41488350524912
20
489.51337117691037
30
0
10
835.42448528289799
20
497.66343591537469
30
0
10
829.27944002075208
20
509.65596349792474
30
0
0
SPLINE
5
840
100
AcDbEntity
8
0
100
AcDbSpline
70
4
71
3
72
8
73
4
74
0
42
0.000000001
43
0.0000000001
44
0.0000000001
40
0
40
0
40
0
40
0
40
1
40
1
40
1
40
1
41
1
41
1
41
1
41
1
10
759.95427620239275
20
417.10477899780273
30
0
10
752.0635183105469
20
428.31574004211416
30
0
10
750.18332319183355
20
460.50302245941157
30
0
10
733.72603935394295
20
445.17980544586175
30
0
0
SPLINE
5
841
100
AcDbEntity
8
0
100
AcDbSpline
70
4
71
3
72
8
73
4
74
0
42
0.000000001
43
0.0000000001
44
0.0000000001
40
0
40
0
40
0
40
0
40
1
40
1
40
1
40
1
41
1
41
1
41
1
41
1
10
582.21205940017705
20
526.91549604187014
30
0
10
598.94258876876825
20
479.49095182952874
30
0
10
653.34042216491696
20
516.72155344314569
30
0
10
677.36717507553112
20
498.15123608245841
30
0
0
SPLINE
5
842
100
AcDbEntity
8
0
100
AcDbSpline
70
4
71
3
72
8
73
4
74
0
42
0.000000001
43
0.0000000001
44
0.0000000001
40
0
40
0
40
0
40
0
40
1
40
1
40
1
40
1
41
1
41
1
41
1
41
1
10
666.25220381164559
20
567.00620592651364
30
0
10
660.34111548995975
20
569.62450599212639
30
0
10
657.63218171234143
20
575.55292625007621
30
0
10
659.02987895660408
20
579.13581336860648
30
0
0
SPLINE
5
843
100
AcDbEntity
8
0
100
AcDbSpline
70
4
71
3
72
8
73
4
74
0
42
0.000000001
43
0.0000000001
44
0.0000000001
40
0.00037183744068541088
40
0.00037183744068541088
40
0.00037183744068541088
40
0.00037183744068541088
40
1
40
1
40
1
40
1
41
1
41
1
41
1
41
1
10
651.56120095870733
20
389.84530538558943
30
0
10
640.17907349283792
20
386.7874316549711
30
0
10
618.48922490363202
20
376.55099751478161
30
0
10
603.24596388626105
20
358.11073981170648
30
0
0
SPLINE
5
844
100
AcDbEntity
8
0
100
AcDbSpline
70
4
71
3
72
8
73
4
74
0
42
0.000000001
43
0.0000000001
44
0.0000000001
40
0
40
0
40
0
40
0
40
1
40
1
40
1
40
1
41
1
41
1
41
1
41
1
10
760.02332431335458
20
280.04668789367662
30
0
10
761.27907498931893
20
282.86088239746084
30
0
10
764.88454793853771
20
282.61471835327137
30
0
10
766.24249412078871
20
281.394223083496
30
0
0
SPLINE
5
845
100
AcDbEntity
8
0
100
AcDbSpline
70
4
71
3
72
8
73
4
74
0
42
0.000000001
43
0.0000000001
44
0.0000000001
40
-1
40
-1
40
-1
40
-1
40
0
40
0
40
0
40
0
41
1
41
1
41
1
41
1
10
743.55743634948738
20
477.74799252014157
30
0
10
734.03473388366706
20
470.0138942520141
30
0
10
715.5972104522707
20
473.00660285949704
30
0
10
707.58321996612551
20
484.86805733795165
30
0
0
SPLINE
5
846
100
AcDbEntity
8
0
100
AcDbSpline
70
4
71
3
72
8
73
4
74
0
42
0.000000001
43
0.0000000001
44
0.0000000001
40
-1
40
-1
40
-1
40
-1
40
0
40
0
40
0
40
0
41
1
41
1
41
1
41
1
10
562.96890476570138
20
253.24634119873031
30
0
10
565.17086730804431
20
253.18619835815417
30
0
10
566.39090548362742
20
252.74583919067368
30
0
10
568.25420962753299
20
249.42176418151845
30
0
0
SPLINE
5
847
100
AcDbEntity
8
0
100
AcDbSpline
70
4
71
3
72
8
73
4
74
0
42
0.000000001
43
0.0000000001
44
0.0000000001
40
0
40
0
40
0
40
0
40
1
40
1
40
1
40
1
41
1
41
1
41
1
41
1
10
711.96816219787604
20
404.08796248321522
30
0
10
706.9629270141603
20
392.48962217712398
30
0
10
700.29247079925551
20
394.64461156921379
30
0
10
694.03740027618426
20
397.85653179626451
30
0
0
SPLINE
5
848
100
AcDbEntity
8
0
100
AcDbSpline
70
4
71
3
72
8
73
4
74
0
42
0.000000001
43
0.0000000001
44
0.0000000001
40
0
40
0
40
0
40
0
40
1
40
1
40
1
40
1
41
1
41
1
41
1
41
1
10
769.62443187713632
20
473.26464059753414
30
0
10
770.26797747955334
20
463.22797066650378
30
0
10
766.39939035797124
20
462.20741377410889
30
0
10
765.97477674102788
20
453.46542818908688
30
0
0
SPLINE
5
849
100
AcDbEntity
8
0
100
AcDbSpline
70
4
71
3
72
8
73
4
74
0
42
0.000000001
43
0.0000000001
44
0.0000000001
40
-1
40
-1
40
-1
40
-1
40
0
40
0
40
0
40
0
41
1
41
1
41
1
41
1
10
747.32602201690679
20
369.61245578308092
30
0
10
736.68723535003664
20
365.40749035644524
30
0
10
699.29430614471448
20
362.9933446899413
30
0
10
723.8509979293824
20
346.76445737609856
30
0
0
SPLINE
5
850
100
AcDbEntity
8
0
100
AcDbSpline
70
4
71
3
72
8
73
4
74
0
42
0.000000001
43
0.0000000001
44
0.0000000001
40
-1
40
-1
40
-1
40
-1
40
0
40
0
40
0
40
0
41
1
41
1
41
1
41
1
10
854.9389871627809
20
526.57574061737057
30
0
10
855.46691482238771
20
533.96154386596675
30
0
10
855.0079062118532
20
545.85851187438959
30
0
10
854.02735850524903
20
559.52538086166373
30
0
0
SPLINE
5
851
100
AcDbEntity
8
0
100
AcDbSpline
70
4
71
3
72
8
73
4
74
0
42
0.000000001
43
0.0000000001
44
0.0000000001
40
0
40
0
40
0
40
0
40
1
40
1
40
1
40
1
41
1
41
1
41
1
41
1
10
766.24249412078871
20
281.394223083496
30
0
10
778.3018219863892
20
270.82173120727526
30
0
10
764.41033153533931
20
233.94380196227999
30
0
10
751.05315730743416
20
234.9056572052001
30
0
0
SPLINE
5
852
100
AcDbEntity
8
0
100
AcDbSpline
70
4
71
3
72
8
73
4
74
0
42
0.000000001
43
0.0000000001
44
0.0000000001
40
0
40
0
40
0
40
0
40
1
40
1
40
1
40
1
41
1
41
1
41
1
41
1
10
767.50351482391352
20
420.33866125640856
30
0
10
768.34835395355242
20
412.14918962097158
30
0
10
763.64955471649182
20
411.96775011444083
30
0
10
759.95427620239275
20
417.10477899780273
30
0
0
SPLINE
5
853
100
AcDbEntity
8
0
100
AcDbSpline
70
4
71
3
72
8
73
4
74
0
42
0.000000001
43
0.0000000001
44
0.0000000001
40
-1
40
-1
40
-1
40
-1
40
0
40
0
40
0
40
0
41
1
41
1
41
1
41
1
10
714.76000748443607
20
329.56960634918204
30
0
10
723.49695965576177
20
323.62230541229235
30
0
10
729.00175039367684
20
339.3326650741576
30
0
10
733.72603935394295
20
334.47144144897436
30
0
0
SPLINE
5
854
100
AcDbEntity
8
0
100
AcDbSpline
70
4
71
3
72
8
73
4
74
0
42
0.000000001
43
0.0000000001
44
0.0000000001
40
-1
40
-1
40
-1
40
-1
40
0
40
0
40
0
40
0
41
1
41
1
41
1
41
1
10
743.39709846191408
20
379.67276555023182
30
0
10
752.26380085296637
20
383.19247687377919
30
0
10
757.76824742584245
20
373.95958288116447
30
0
10
747.32602201690679
20
369.61245578308092
30
0
0
LINE
5
855
100
AcDbEntity
8
0
100
AcDbLine
10
562.96890476570138
20
177.81104335937476
30
0
11
562.96890476570138
21
253.24634119873031
31
0
0
SPLINE
5
856
100
AcDbEntity
8
0
100
AcDbSpline
70
4
71
3
72
8
73
4
74
0
42
0.000000001
43
0.0000000001
44
0.0000000001
40
0
40
0
40
0
40
0
40
1
40
1
40
1
40
1
41
1
41
1
41
1
41
1
10
732.68633828125007
20
456.79692425689694
30
0
10
744.11132695922856
20
456.42281685943601
30
0
10
761.47322709198011
20
467.12579030609129
30
0
10
769.62443187713632
20
473.26464059753414
30
0
0
SPLINE
5
857
100
AcDbEntity
8
0
100
AcDbSpline
70
4
71
3
72
8
73
4
74
0
42
0.000000001
43
0.0000000001
44
0.0000000001
40
-1
40
-1
40
-1
40
-1
40
0
40
0
40
0
40
0
41
1
41
1
41
1
41
1
10
683.07897032928486
20
297.88854768371573
30
0
10
662.63927753829967
20
300.7032584350585
30
0
10
663.79804895935081
20
309.39381285705565
30
0
10
666.57589103088389
20
315.38705982666011
30
0
0
SPLINE
5
858
100
AcDbEntity
8
0
100
AcDbSpline
70
4
71
3
72
8
73
4
74
0
42
0.000000001
43
0.0000000001
44
0.0000000001
40
0
40
0
40
0
40
0
40
1
40
1
40
1
40
1
41
1
41
1
41
1
41
1
10
759.96004096679701
20
436.67099167480455
30
0
10
765.03793799438483
20
430.60990117187487
30
0
10
767.09537810821541
20
424.70648127746574
30
0
10
767.50351482391352
20
420.33866125640856
30
0
0
SPLINE
5
859
100
AcDbEntity
8
0
100
AcDbSpline
70
4
71
3
72
8
73
4
74
0
42
0.000000001
43
0.0000000001
44
0.0000000001
40
0
40
0
40
0
40
0
40
1
40
1
40
1
40
1
41
1
41
1
41
1
41
1
10
733.72603935394295
20
445.17980544586175
30
0
10
729.00175039367684
20
440.31858182067867
30
0
10
723.49695965576177
20
456.02894148254393
30
0
10
714.76000748443607
20
450.0816405456543
30
0
0
SPLINE
5
860
100
AcDbEntity
8
0
100
AcDbSpline
70
4
71
3
72
8
73
4
74
0
42
0.000000001
43
0.0000000001
44
0.0000000001
40
-1
40
-1
40
-1
40
-1
40
0
40
0
40
0
40
0
41
1
41
1
41
1
41
1
10
666.57589103088389
20
315.38705982666011
30
0
10
670.69084654464734
20
320.68249066925034
30
0
10
680.4014631217957
20
318.49986052246084
30
0
10
684.60293312225349
20
314.06847752075186
30
0
0
SPLINE
5
861
100
AcDbEntity
8
0
100
AcDbSpline
70
4
71
3
72
8
73
4
74
0
42
0.000000001
43
0.0000000001
44
0.0000000001
40
0
40
0
40
0
40
0
40
1
40
1
40
1
40
1
41
1
41
1
41
1
41
1
10
747.32602201690679
20
410.0387911117553
30
0
10
757.76824742584245
20
405.69166401367181
30
0
10
752.26380085296637
20
396.45877002105703
30
0
10
743.39709846191408
20
399.9784813446044
30
0
0
SPLINE
5
862
100
AcDbEntity
8
0
100
AcDbSpline
70
4
71
3
72
8
73
4
74
0
42
0.000000001
43
0.0000000001
44
0.0000000001
40
0
40
0
40
0
40
0
40
1
40
1
40
1
40
1
41
1
41
1
41
1
41
1
10
762.68333287963878
20
389.8418960006714
30
0
10
762.68333287963878
20
396.64408138427723
30
0
10
768.19758815612795
20
402.15831515045153
30
0
10
774.99975202941891
20
402.15831515045153
30
0
0
LINE
5
863
100
AcDbEntity
8
0
100
AcDbLine
10
586.01608331146247
20
177.81104335937476
30
0
11
562.96890476570138
21
177.81104335937476
31
0
0
SPLINE
5
864
100
AcDbEntity
8
0
100
AcDbSpline
70
4
71
3
72
8
73
4
74
0
42
0.000000001
43
0.0000000001
44
0.0000000001
40
0
40
0
40
0
40
0
40
1
40
1
40
1
40
1
41
1
41
1
41
1
41
1
10
683.07897032928486
20
481.76267770080557
30
0
10
703.55106840972906
20
478.94100836257934
30
0
10
708.1053183303834
20
457.60181873168938
30
0
10
732.68633828125007
20
456.79692425689694
30
0
0
SPLINE
5
865
100
AcDbEntity
8
0
100
AcDbSpline
70
4
71
3
72
8
73
4
74
0
42
0.000000001
43
0.0000000001
44
0.0000000001
40
0
40
0
40
0
40
0
40
1
40
1
40
1
40
1
41
1
41
1
41
1
41
1
10
745.34561034088142
20
247.42810215148907
30
0
10
742.18202379150398
20
248.17722037963853
30
0
10
740.55582247161874
20
248.73872564086901
30
0
10
736.86639476318362
20
246.89348478393532
30
0
0
SPLINE
5
866
100
AcDbEntity
8
0
100
AcDbSpline
70
4
71
3
72
8
73
4
74
0
42
0.000000001
43
0.0000000001
44
0.0000000001
40
0
40
0
40
0
40
0
40
1
40
1
40
1
40
1
41
1
41
1
41
1
41
1
10
774.99975202941891
20
223.31262994689922
30
0
10
777.56537333374035
20
223.44638108520485
30
0
10
779.47591950683602
20
216.9231629760742
30
0
10
779.66538236083989
20
209.8275553863524
30
0
0
SPLINE
5
867
100
AcDbEntity
8
0
100
AcDbSpline
70
4
71
3
72
8
73
4
74
0
42
0.000000001
43
0.0000000001
44
0.0000000001
40
0
40
0
40
0
40
0
40
1
40
1
40
1
40
1
41
1
41
1
41
1
41
1
10
659.02987895660408
20
579.13581336860648
30
0
10
662.18062384796156
20
587.2125118003845
30
0
10
675.61212696914686
20
589.84889128570558
30
0
10
681.46939648284933
20
575.90453923568725
30
0
0
SPLINE
5
868
100
AcDbEntity
8
0
100
AcDbSpline
70
4
71
3
72
8
73
4
74
0
42
0.000000001
43
0.0000000001
44
0.0000000001
40
-1
40
-1
40
-1
40
-1
40
0
40
0
40
0
40
0
41
1
41
1
41
1
41
1
10
774.99975202941891
20
193.53740669555648
30
0
10
771.43945074157728
20
196.30268674316392
30
0
10
770.16001720886243
20
203.30683247375475
30
0
10
770.33412169799817
20
209.8275553863524
30
0
0
SPLINE
5
869
100
AcDbEntity
8
0
100
AcDbSpline
70
4
71
3
72
8
73
4
74
0
42
0.000000001
43
0.0000000001
44
0.0000000001
40
-1
40
-1
40
-1
40
-1
40
0
40
0
40
0
40
0
41
1
41
1
41
1
41
1
10
759.96004096679701
20
342.98025522003161
30
0
10
747.6456222763062
20
325.57387175598137
30
0
10
761.87686815185555
20
327.13124006805401
30
0
10
765.97477674102788
20
326.18581870574928
30
0
0
SPLINE
5
870
100
AcDbEntity
8
0
100
AcDbSpline
70
4
71
3
72
8
73
4
74
0
42
0.000000001
43
0.0000000001
44
0.0000000001
40
0
40
0
40
0
40
0
40
1
40
1
40
1
40
1
41
1
41
1
41
1
41
1
10
715.11167962341324
20
601.87955127906798
30
0
10
703.74300494995111
20
591.37977502250669
30
0
10
700.24740668945333
20
584.79506430053709
30
0
10
693.92333107604986
20
575.75723659896846
30
0
0
SPLINE
5
871
100
AcDbEntity
8
0
100
AcDbSpline
70
4
71
3
72
8
73
4
74
0
42
0.000000001
43
0.0000000001
44
0.0000000001
40
0
40
0
40
0
40
0
40
1
40
1
40
1
40
1
41
1
41
1
41
1
41
1
10
677.36717507553112
20
498.15123608245841
30
0
10
666.30778646545423
20
497.03245233688347
30
0
10
654.06205021057133
20
487.333419064331
30
0
10
654.10569463958745
20
475.84539440841667
30
0
0
LINE
5
872
100
AcDbEntity
8
0
100
AcDbLine
10
656.54918037567143
20
177.81108638000475
30
0
11
598.60968975715639
21
177.81108638000475
31
0
0
SPLINE
5
873
100
AcDbEntity
8
0
100
AcDbSpline
70
4
71
3
72
8
73
4
74
0
42
0.000000001
43
0.0000000001
44
0.0000000001
40
-1
40
-1
40
-1
40
-1
40
0
40
0
40
0
40
0
41
1
41
1
41
1
41
1
10
733.72603935394295
20
334.47144144897436
30
0
10
750.18332319183355
20
319.14822443542477
30
0
10
752.0635183105469
20
351.33550685272201
30
0
10
759.95427620239275
20
362.54646789703361
30
0
0
SPLINE
5
874
100
AcDbEntity
8
0
100
AcDbSpline
70
4
71
3
72
8
73
4
74
0
42
0.000000001
43
0.0000000001
44
0.0000000001
40
0
40
0
40
0
40
0
40
1
40
1
40
1
40
1
41
1
41
1
41
1
41
1
10
842.41626258239762
20
484.86805733795165
30
0
10
834.40227209625255
20
473.00660285949704
30
0
10
815.96474866485607
20
470.0138942520141
30
0
10
806.44204619903576
20
477.74799252014157
30
0
0
SPLINE
5
875
100
AcDbEntity
8
0
100
AcDbSpline
70
4
71
3
72
8
73
4
74
0
42
0.000000001
43
0.0000000001
44
0.0000000001
40
-1
40
-1
40
-1
40
-1
40
0
40
0
40
0
40
0
41
1
41
1
41
1
41
1
10
598.60968975715639
20
177.81108638000475
30
0
10
608.90627420120245
20
182.39011618347149
30
0
10
609.43270689392091
20
194.13212388305652
30
0
10
606.45956191787718
20
198.92664402160625
30
0
0
SPLINE
5
876
100
AcDbEntity
8
0
100
AcDbSpline
70
4
71
3
72
8
73
4
74
0
42
0.000000001
43
0.0000000001
44
0.0000000001
40
-0.99751686591409361
40
-0.99751686591409361
40
-0.99751686591409361
40
-0.99751686591409361
40
0
40
0
40
0
40
0
41
1
41
1
41
1
41
1
10
588.09694081619659
20
389.84530538560813
30
0
10
599.86680823437189
20
396.10762904958477
30
0
10
604.811491637534
20
410.05858746000996
30
0
10
603.24596388626105
20
421.57987095947254
30
0
0
SPLINE
5
877
100
AcDbEntity
8
0
100
AcDbSpline
70
4
71
3
72
8
73
4
74
0
42
0.000000001
43
0.0000000001
44
0.0000000001
40
0
40
0
40
0
40
0
40
1
40
1
40
1
40
1
41
1
41
1
41
1
41
1
10
779.66538236083989
20
209.8275553863524
30
0
10
779.83948684997574
20
203.30683247375475
30
0
10
778.56005331726078
20
196.30268674316392
30
0
10
774.99975202941891
20
193.53740669555648
30
0
0
SPLINE
5
878
100
AcDbEntity
8
0
100
AcDbSpline
70
4
71
3
72
8
73
4
74
0
42
0.000000001
43
0.0000000001
44
0.0000000001
40
0
40
0
40
0
40
0
40
1
40
1
40
1
40
1
41
1
41
1
41
1
41
1
10
693.92333107604986
20
575.75723659896846
30
0
10
685.9093298347475
20
563.89577136535638
30
0
10
675.77491703262342
20
563.7201934196471
30
0
10
666.25220381164559
20
567.00620592651364
30
0
0
SPLINE
5
879
100
AcDbEntity
8
0
100
AcDbSpline
70
4
71
3
72
8
73
4
74
0
42
0.000000001
43
0.0000000001
44
0.0000000001
40
-1
40
-1
40
-1
40
-1
40
0
40
0
40
0
40
0
41
1
41
1
41
1
41
1
10
765.97477674102788
20
326.18581870574928
30
0
10
766.39939035797124
20
317.44383312072739
30
0
10
770.26797747955334
20
316.42327622833238
30
0
10
769.62443187713632
20
306.38660629730219
30
0
0
SPLINE
5
880
100
AcDbEntity
8
0
100
AcDbSpline
70
4
71
3
72
8
73
4
74
0
42
0.000000001
43
0.0000000001
44
0.0000000001
40
0
40
0
40
0
40
0
40
1
40
1
40
1
40
1
41
1
41
1
41
1
41
1
10
668.07450391769407
20
552.06103269805897
30
0
10
680.22515382537847
20
550.34896220092764
30
0
10
692.1953859664917
20
554.29944984664917
30
0
10
695.97212404327388
20
559.52538086166373
30
0
0
SPLINE
5
881
100
AcDbEntity
8
0
100
AcDbSpline
70
4
71
3
72
8
73
4
74
0
42
0.000000001
43
0.0000000001
44
0.0000000001
40
0
40
0
40
0
40
0
40
1
40
1
40
1
40
1
41
1
41
1
41
1
41
1
10
695.97212404327388
20
559.52538086166373
30
0
10
694.99157633666994
20
545.85851187438959
30
0
10
694.53256772613531
20
533.96154386596675
30
0
10
695.06049538574234
20
526.57574061737057
30
0
0
SPLINE
5
882
100
AcDbEntity
8
0
100
AcDbSpline
70
4
71
3
72
8
73
4
74
0
42
0.000000001
43
0.0000000001
44
0.0000000001
40
0
40
0
40
0
40
0
40
1
40
1
40
1
40
1
41
1
41
1
41
1
41
1
10
829.58587596740722
20
197.67917481689437
30
0
10
811.35581952362077
20
189.15678803710918
30
0
10
791.53563455810558
20
201.12353550720201
30
0
10
786.86131405944832
20
224.02027628784168
30
0
0
SPLINE
5
883
100
AcDbEntity
8
0
100
AcDbSpline
70
4
71
3
72
8
73
4
74
0
42
0.000000001
43
0.0000000001
44
0.0000000001
40
0
40
0
40
0
40
0
40
1
40
1
40
1
40
1
41
1
41
1
41
1
41
1
10
695.06049538574234
20
526.57574061737057
30
0
10
687.35035960845948
20
534.58355764312739
30
0
10
680.22687465057379
20
541.20124905548096
30
0
10
668.07450391769407
20
552.06103269805897
30
0
0
SPLINE
5
884
100
AcDbEntity
8
0
100
AcDbSpline
70
4
71
3
72
8
73
4
74
0
42
0.000000001
43
0.0000000001
44
0.0000000001
40
0
40
0
40
0
40
0
40
1
40
1
40
1
40
1
41
1
41
1
41
1
41
1
10
881.92498938598646
20
227.62957807312006
30
0
10
869.77435023345959
20
229.34167008056619
30
0
10
857.80409658203121
20
225.3911716796874
30
0
10
854.02735850524903
20
220.16524066467269
30
0
0
SPLINE
5
885
100
AcDbEntity
8
0
100
AcDbSpline
70
4
71
3
72
8
73
4
74
0
42
0.000000001
43
0.0000000001
44
0.0000000001
40
0
40
0
40
0
40
0
40
1
40
1
40
1
40
1
41
1
41
1
41
1
41
1
10
854.02735850524903
20
220.16524066467269
30
0
10
855.0079062118532
20
233.83212040710433
30
0
10
855.46691482238771
20
245.72908841552717
30
0
10
854.9389871627809
20
253.11487015380857
30
0
0
SPLINE
5
886
100
AcDbEntity
8
0
100
AcDbSpline
70
4
71
3
72
8
73
4
74
0
42
0.000000001
43
0.0000000001
44
0.0000000001
40
-1
40
-1
40
-1
40
-1
40
0
40
0
40
0
40
0
41
1
41
1
41
1
41
1
10
763.13816848907481
20
224.02027628784168
30
0
10
758.46384799041755
20
201.12353550720201
30
0
10
738.64366302490237
20
189.15678803710918
30
0
10
720.4136065811158
20
197.67917481689437
30
0
0
SPLINE
5
887
100
AcDbEntity
8
0
100
AcDbSpline
70
4
71
3
72
8
73
4
74
0
42
0.000000001
43
0.0000000001
44
0.0000000001
40
0
40
0
40
0
40
0
40
1
40
1
40
1
40
1
41
1
41
1
41
1
41
1
10
854.9389871627809
20
253.11487015380857
30
0
10
862.64912294006365
20
245.10705312805163
30
0
10
869.77260789794946
20
238.48936171569818
30
0
10
881.92498938598646
20
227.62957807312006
30
0
0
SPLINE
5
888
100
AcDbEntity
8
0
100
AcDbSpline
70
4
71
3
72
8
73
4
74
0
42
0.000000001
43
0.0000000001
44
0.0000000001
40
0
40
0
40
0
40
0
40
1
40
1
40
1
40
1
41
1
41
1
41
1
41
1
10
909.150035739136
20
208.27171430664052
30
0
10
919.7190859649661
20
201.44890053100568
30
0
10
926.45633170776375
20
201.54681548461895
30
0
10
940.55565482177735
20
206.1762224456786
30
0
0
SPLINE
5
889
100
AcDbEntity
8
0
100
AcDbSpline
70
4
71
3
72
8
73
4
74
0
42
0.000000001
43
0.0000000001
44
0.0000000001
40
0
40
0
40
0
40
0
40
1
40
1
40
1
40
1
41
1
41
1
41
1
41
1
10
894.8727362792971
20
232.75871267089826
30
0
10
880.14600029907228
20
243.63862996826163
30
0
10
871.20850746154792
20
255.65579761657702
30
0
10
865.49857285003668
20
270.03974521789536
30
0
0
SPLINE
5
890
100
AcDbEntity
8
0
100
AcDbSpline
70
4
71
3
72
8
73
4
74
0
42
0.000000001
43
0.0000000001
44
0.0000000001
40
0
40
0
40
0
40
0
40
1
40
1
40
1
40
1
41
1
41
1
41
1
41
1
10
963.86117762756362
20
198.06278977355936
30
0
10
961.47684525756847
20
192.71889619140609
30
0
10
953.25977588806165
20
189.71713174133285
30
0
10
943.53986685485847
20
198.92664402160625
30
0
0
SPLINE
5
891
100
AcDbEntity
8
0
100
AcDbSpline
70
4
71
3
72
8
73
4
74
0
42
0.000000001
43
0.0000000001
44
0.0000000001
40
0
40
0
40
0
40
0
40
1
40
1
40
1
40
1
41
1
41
1
41
1
41
1
10
789.97617974548348
20
499.64395514297479
30
0
10
788.72042906951924
20
496.82974988403316
30
0
10
785.11495612030046
20
497.07593543853756
30
0
10
783.75700993804935
20
498.29639844284054
30
0
0
SPLINE
5
892
100
AcDbEntity
8
0
100
AcDbSpline
70
4
71
3
72
8
73
4
74
0
42
0.000000001
43
0.0000000001
44
0.0000000001
40
0
40
0
40
0
40
0
40
1
40
1
40
1
40
1
41
1
41
1
41
1
41
1
10
865.49857285003668
20
270.03974521789536
30
0
10
886.59578219299328
20
256.29220179443348
30
0
10
900.634876425171
20
258.42662732543937
30
0
10
910.09627449340826
20
261.2694305480955
30
0
0
SPLINE
5
893
100
AcDbEntity
8
0
100
AcDbSpline
70
4
71
3
72
8
73
4
74
0
42
0.000000001
43
0.0000000001
44
0.0000000001
40
0
40
0
40
0
40
0
40
1
40
1
40
1
40
1
41
1
41
1
41
1
41
1
10
940.55565482177735
20
206.1762224456786
30
0
10
947.03580928039571
20
208.69413387145983
30
0
10
954.27355703125022
20
212.00947569274888
30
0
10
959.97503808898944
20
209.13892416381827
30
0
0
SPLINE
5
894
100
AcDbEntity
8
0
100
AcDbSpline
70
4
71
3
72
8
73
4
74
0
42
0.000000001
43
0.0000000001
44
0.0000000001
40
0
40
0
40
0
40
0
40
1
40
1
40
1
40
1
41
1
41
1
41
1
41
1
10
865.33675075073256
20
314.00652781372065
30
0
10
869.53823150634776
20
318.43791081542963
30
0
10
879.24884808349611
20
320.62054096221914
30
0
10
883.36377133178735
20
315.32511011962879
30
0
0
SPLINE
5
895
100
AcDbEntity
8
0
100
AcDbSpline
70
4
71
3
72
8
73
4
74
0
42
0.000000001
43
0.0000000001
44
0.0000000001
40
0
40
0
40
0
40
0
40
1
40
1
40
1
40
1
41
1
41
1
41
1
41
1
10
959.97503808898944
20
209.13892416381827
30
0
10
963.44108117675796
20
207.67501817016586
30
0
10
965.66025734863297
20
202.09489830932597
30
0
10
963.86117762756362
20
198.06278977355936
30
0
0
SPLINE
5
896
100
AcDbEntity
8
0
100
AcDbSpline
70
4
71
3
72
8
73
4
74
0
42
0.000000001
43
0.0000000001
44
0.0000000001
40
0
40
0
40
0
40
0
40
1
40
1
40
1
40
1
41
1
41
1
41
1
41
1
10
804.65389371795652
20
532.26253013000485
30
0
10
807.81748026733408
20
531.51343341217034
30
0
10
809.44368158721932
20
530.951906640625
30
0
10
813.13310929565432
20
532.79713674240111
30
0
0
SPLINE
5
897
100
AcDbEntity
8
0
100
AcDbSpline
70
4
71
3
72
8
73
4
74
0
42
0.000000001
43
0.0000000001
44
0.0000000001
40
0
40
0
40
0
40
0
40
1
40
1
40
1
40
1
41
1
41
1
41
1
41
1
10
819.50868060302753
20
515.22643598251329
30
0
10
803.67119497985857
20
518.88510394058221
30
0
10
793.67629808044444
20
508.44335175857537
30
0
10
789.97617974548348
20
499.64395514297479
30
0
0
SPLINE
5
898
100
AcDbEntity
8
0
100
AcDbSpline
70
4
71
3
72
8
73
4
74
0
42
0.000000001
43
0.0000000001
44
0.0000000001
40
0
40
0
40
0
40
0
40
1
40
1
40
1
40
1
41
1
41
1
41
1
41
1
10
933.10078195190442
20
251.65023280944808
30
0
10
922.72575476684597
20
242.12266901245107
30
0
10
923.0923335540773
20
225.77276466674789
30
0
10
944.21258044433614
20
224.45564506225571
30
0
0
SPLINE
5
899
100
AcDbEntity
8
0
100
AcDbSpline
70
4
71
3
72
8
73
4
74
0
42
0.000000001
43
0.0000000001
44
0.0000000001
40
0
40
0
40
0
40
0
40
1
40
1
40
1
40
1
41
1
41
1
41
1
41
1
10
817.11638941650392
20
237.26512365112291
30
0
10
819.28331703338631
20
236.8285072784422
30
0
10
820.98465388336194
20
236.24174890747048
30
0
10
822.91696849517837
20
236.55648783569319
30
0
0
SPLINE
5
900
100
AcDbEntity
8
0
100
AcDbSpline
70
4
71
3
72
8
73
4
74
0
42
0.000000001
43
0.0000000001
44
0.0000000001
40
-1
40
-1
40
-1
40
-1
40
0
40
0
40
0
40
0
41
1
41
1
41
1
41
1
10
655.12675702438344
20
232.75871267089826
30
0
10
631.10000411376961
20
214.18842757568348
30
0
10
613.91779039688117
20
216.42743625793429
30
0
10
605.78689134902959
20
224.45564506225571
30
0
0
SPLINE
5
901
100
AcDbEntity
8
0
100
AcDbSpline
70
4
71
3
72
8
73
4
74
0
42
0.000000001
43
0.0000000001
44
0.0000000001
40
0
40
0
40
0
40
0
40
1
40
1
40
1
40
1
41
1
41
1
41
1
41
1
10
798.94634675140401
20
544.7849750762939
30
0
10
804.74335511779805
20
543.2496333267211
30
0
10
806.29364653625487
20
539.57635986480705
30
0
10
804.65389371795652
20
532.26253013000485
30
0
0
SPLINE
5
902
100
AcDbEntity
8
0
100
AcDbSpline
70
4
71
3
72
8
73
4
74
0
42
0.000000001
43
0.0000000001
44
0.0000000001
40
0
40
0
40
0
40
0
40
1
40
1
40
1
40
1
41
1
41
1
41
1
41
1
10
944.21258044433614
20
224.45564506225571
30
0
10
936.08168139648444
20
216.42743625793429
30
0
10
918.8994569244386
20
214.18842757568348
30
0
10
894.8727362792971
20
232.75871267089826
30
0
0
SPLINE
5
903
100
AcDbEntity
8
0
100
AcDbSpline
70
4
71
3
72
8
73
4
74
0
42
0.000000001
43
0.0000000001
44
0.0000000001
40
-1
40
-1
40
-1
40
-1
40
0
40
0
40
0
40
0
41
1
41
1
41
1
41
1
10
605.78689134902959
20
224.45564506225571
30
0
10
626.90712748413091
20
225.77276466674789
30
0
10
627.27370627136236
20
242.12266901245107
30
0
10
616.89867908630379
20
251.65023280944808
30
0
0
SPLINE
5
904
100
AcDbEntity
8
0
100
AcDbSpline
70
4
71
3
72
8
73
4
74
0
42
0.000000001
43
0.0000000001
44
0.0000000001
40
0
40
0
40
0
40
0
40
1
40
1
40
1
40
1
41
1
41
1
41
1
41
1
10
783.75700993804935
20
498.29639844284054
30
0
10
771.69768207244886
20
508.86887956390376
30
0
10
785.58917252349852
20
545.74683031921381
30
0
10
798.94634675140401
20
544.7849750762939
30
0
0
SPLINE
5
905
100
AcDbEntity
8
0
100
AcDbSpline
70
4
71
3
72
8
73
4
74
0
42
0.000000001
43
0.0000000001
44
0.0000000001
40
0
40
0
40
0
40
0
40
1
40
1
40
1
40
1
41
1
41
1
41
1
41
1
10
943.53986685485847
20
198.92664402160625
30
0
10
940.56671112365734
20
194.13208086242662
30
0
10
941.09315457153332
20
182.39011618347149
30
0
10
951.3897981689455
20
177.81108638000475
30
0
0
SPLINE
5
906
100
AcDbEntity
8
0
100
AcDbSpline
70
4
71
3
72
8
73
4
74
0
42
0.000000001
43
0.0000000001
44
0.0000000001
40
0
40
0
40
0
40
0
40
1
40
1
40
1
40
1
41
1
41
1
41
1
41
1
10
813.13310929565432
20
532.79713674240111
30
0
10
811.88583368377692
20
525.48195185775751
30
0
10
813.2440164794923
20
519.57637017669674
30
0
10
819.50868060302753
20
515.22643598251329
30
0
0
SPLINE
5
907
100
AcDbEntity
8
0
100
AcDbSpline
70
4
71
3
72
8
73
4
74
0
42
0.000000001
43
0.0000000001
44
0.0000000001
40
0
40
0
40
0
40
0
40
1
40
1
40
1
40
1
41
1
41
1
41
1
41
1
10
825.67269796295159
20
370.75891254882805
30
0
10
838.57439127197267
20
363.33746670837388
30
0
10
838.50433217620866
20
370.72937888641349
30
0
10
837.97152167511001
20
375.50133470458974
30
0
0
SPLINE
5
908
100
AcDbEntity
8
0
100
AcDbSpline
70
4
71
3
72
8
73
4
74
0
42
0.000000001
43
0.0000000001
44
0.0000000001
40
0
40
0
40
0
40
0
40
1
40
1
40
1
40
1
41
1
41
1
41
1
41
1
10
855.90228359680191
20
381.73276539154045
30
0
10
830.707531340027
20
363.17394529418937
30
0
10
840.63088493194584
20
332.68042809600814
30
0
10
856.01820268402105
20
329.97045106811521
30
0
0
SPLINE
5
909
100
AcDbEntity
8
0
100
AcDbSpline
70
4
71
3
72
8
73
4
74
0
42
0.000000001
43
0.0000000001
44
0.0000000001
40
0
40
0
40
0
40
0
40
1
40
1
40
1
40
1
41
1
41
1
41
1
41
1
10
806.54258541107185
20
379.61081584320056
30
0
10
811.38468636627204
20
377.80896129150381
30
0
10
817.05865573120127
20
373.87050866699212
30
0
10
825.67269796295159
20
370.75891254882805
30
0
0
SPLINE
5
910
100
AcDbEntity
8
0
100
AcDbSpline
70
4
71
3
72
8
73
4
74
0
42
0.000000001
43
0.0000000001
44
0.0000000001
40
0
40
0
40
0
40
0
40
1
40
1
40
1
40
1
41
1
41
1
41
1
41
1
10
837.97152167511001
20
375.50133470458974
30
0
10
842.97675685882587
20
387.09967501068104
30
0
10
849.64721307373054
20
384.94468561859122
30
0
10
855.90228359680191
20
381.73276539154045
30
0
0
LINE
5
911
100
AcDbEntity
8
0
100
AcDbLine
10
951.3897981689455
20
177.81108638000475
30
0
11
893.45030217285171
21
177.81108638000475
31
0
0
SPLINE
5
912
100
AcDbEntity
8
0
100
AcDbSpline
70
4
71
3
72
8
73
4
74
0
42
0.000000001
43
0.0000000001
44
0.0000000001
40
-1
40
-1
40
-1
40
-1
40
0
40
0
40
0
40
0
41
1
41
1
41
1
41
1
10
616.89867908630379
20
251.65023280944808
30
0
10
604.80646194915767
20
232.6549469116209
30
0
10
589.16846836433422
20
253.27236867980935
30
0
10
605.32527999038689
20
262.94448179321279
30
0
0
SPLINE
5
913
100
AcDbEntity
8
0
100
AcDbSpline
70
4
71
3
72
8
73
4
74
0
42
0.000000001
43
0.0000000001
44
0.0000000001
40
0
40
0
40
0
40
0
40
1
40
1
40
1
40
1
41
1
41
1
41
1
41
1
10
856.01820268402105
20
329.97045106811521
30
0
10
847.92268810424821
20
316.76462341613757
30
0
10
859.78384143829362
20
304.90347008209227
30
0
10
865.33675075073256
20
314.00652781372065
30
0
0
SPLINE
5
914
100
AcDbEntity
8
0
100
AcDbSpline
70
4
71
3
72
8
73
4
74
0
42
0.000000001
43
0.0000000001
44
0.0000000001
40
0
40
0
40
0
40
0
40
1
40
1
40
1
40
1
41
1
41
1
41
1
41
1
10
783.96490713195817
20
326.12386899871819
30
0
10
788.06281572113051
20
327.06929036102281
30
0
10
802.29406159667974
20
325.51192204895011
30
0
10
789.97964290618916
20
342.9183055130004
30
0
0
SPLINE
5
915
100
AcDbEntity
8
0
100
AcDbSpline
70
4
71
3
72
8
73
4
74
0
42
0.000000001
43
0.0000000001
44
0.0000000001
40
0
40
0
40
0
40
0
40
1
40
1
40
1
40
1
41
1
41
1
41
1
41
1
10
816.21364451904299
20
334.40949174194327
30
0
10
820.93791196899417
20
339.2707153671264
30
0
10
826.44272421722417
20
323.56035570526103
30
0
10
835.17967638854986
20
329.50765664215078
30
0
0
LINE
5
916
100
AcDbEntity
8
0
100
AcDbLine
10
562.96890476570138
20
601.87954590148922
30
0
11
586.01608331146247
21
601.87954590148922
31
0
0
SPLINE
5
917
100
AcDbEntity
8
0
100
AcDbSpline
70
4
71
3
72
8
73
4
74
0
42
0.000000001
43
0.0000000001
44
0.0000000001
40
0
40
0
40
0
40
0
40
1
40
1
40
1
40
1
41
1
41
1
41
1
41
1
10
883.36377133178735
20
315.32511011962879
30
0
10
886.14161340332043
20
309.33186315002428
30
0
10
887.30037406921394
20
300.64130872802718
30
0
10
866.86069203338639
20
297.82659797668435
30
0
0
SPLINE
5
918
100
AcDbEntity
8
0
100
AcDbSpline
70
4
71
3
72
8
73
4
74
0
42
0.000000001
43
0.0000000001
44
0.0000000001
40
-1
40
-1
40
-1
40
-1
40
0
40
0
40
0
40
0
41
1
41
1
41
1
41
1
10
639.90320805511476
20
261.2694305480955
30
0
10
649.36461687850965
20
258.42662732543937
30
0
10
663.40370035552974
20
256.29220179443348
30
0
10
684.50092045364386
20
270.03974521789536
30
0
0
SPLINE
5
919
100
AcDbEntity
8
0
100
AcDbSpline
70
4
71
3
72
8
73
4
74
0
42
0.000000001
43
0.0000000001
44
0.0000000001
40
0
40
0
40
0
40
0
40
1
40
1
40
1
40
1
41
1
41
1
41
1
41
1
10
817.25332408142094
20
322.79235142059321
30
0
10
805.82833540344245
20
323.16645881805414
30
0
10
788.46643527069102
20
312.4634853713988
30
0
10
780.31525199584962
20
306.32465659027093
30
0
0
SPLINE
5
920
100
AcDbEntity
8
0
100
AcDbSpline
70
4
71
3
72
8
73
4
74
0
42
0.000000001
43
0.0000000001
44
0.0000000001
40
0
40
0
40
0
40
0
40
1
40
1
40
1
40
1
41
1
41
1
41
1
41
1
10
802.61366185607915
20
369.55050607604971
30
0
10
792.17143644714361
20
373.89763317413315
30
0
10
797.67588302001957
20
383.13052716674804
30
0
10
806.54258541107185
20
379.61081584320056
30
0
0
SPLINE
5
921
100
AcDbEntity
8
0
100
AcDbSpline
70
4
71
3
72
8
73
4
74
0
42
0.000000001
43
0.0000000001
44
0.0000000001
40
0
40
0
40
0
40
0
40
1
40
1
40
1
40
1
41
1
41
1
41
1
41
1
10
822.91696849517837
20
236.55648783569319
30
0
10
824.43226263122574
20
246.39917774658193
30
0
10
829.84548395843512
20
249.17697679748522
30
0
10
834.81223718872093
20
247.84751027221665
30
0
0
SPLINE
5
922
100
AcDbEntity
8
0
100
AcDbSpline
70
4
71
3
72
8
73
4
74
0
42
0.000000001
43
0.0000000001
44
0.0000000001
40
-1
40
-1
40
-1
40
-1
40
0
40
0
40
0
40
0
41
1
41
1
41
1
41
1
10
605.32527999038689
20
262.94448179321279
30
0
10
617.16156740036001
20
270.0301516174315
30
0
10
629.68903500518809
20
262.63017307128899
30
0
10
639.90320805511476
20
261.2694305480955
30
0
0
SPLINE
5
923
100
AcDbEntity
8
0
100
AcDbSpline
70
4
71
3
72
8
73
4
74
0
42
0.000000001
43
0.0000000001
44
0.0000000001
40
0
40
0
40
0
40
0
40
1
40
1
40
1
40
1
41
1
41
1
41
1
41
1
10
789.97964290618916
20
342.9183055130004
30
0
10
784.9017458786011
20
348.97939601593009
30
0
10
782.84430576477064
20
354.88281591033922
30
0
10
782.43616904907242
20
359.2506359313964
30
0
0
SPLINE
5
924
100
AcDbEntity
8
0
100
AcDbSpline
70
4
71
3
72
8
73
4
74
0
42
0.000000001
43
0.0000000001
44
0.0000000001
40
0
40
0
40
0
40
0
40
1
40
1
40
1
40
1
41
1
41
1
41
1
41
1
10
789.98540767059342
20
362.4845181900024
30
0
10
797.87616556243904
20
351.27355714569086
30
0
10
799.75636068115239
20
319.08627472839351
30
0
10
816.21364451904299
20
334.40949174194327
30
0
0
SPLINE
5
925
100
AcDbEntity
8
0
100
AcDbSpline
70
4
71
3
72
8
73
4
74
0
42
0.000000001
43
0.0000000001
44
0.0000000001
40
-1
40
-1
40
-1
40
-1
40
0
40
0
40
0
40
0
41
1
41
1
41
1
41
1
10
684.50092045364386
20
270.03974521789536
30
0
10
678.79098584213261
20
255.65579761657702
30
0
10
669.85349300460825
20
243.63862996826163
30
0
10
655.12675702438344
20
232.75871267089826
30
0
0
SPLINE
5
926
100
AcDbEntity
8
0
100
AcDbSpline
70
4
71
3
72
8
73
4
74
0
42
0.000000001
43
0.0000000001
44
0.0000000001
40
0
40
0
40
0
40
0
40
1
40
1
40
1
40
1
41
1
41
1
41
1
41
1
10
834.81223718872093
20
247.84751027221665
30
0
10
845.17803644866945
20
244.72580430603023
30
0
10
845.45597122802747
20
232.38017414855946
30
0
10
844.52838191680917
20
221.35729929809543
30
0
0
SPLINE
5
927
100
AcDbEntity
8
0
100
AcDbSpline
70
4
71
3
72
8
73
4
74
0
42
0.000000001
43
0.0000000001
44
0.0000000001
40
0
40
0
40
0
40
0
40
1
40
1
40
1
40
1
41
1
41
1
41
1
41
1
10
893.45030217285171
20
177.81108638000475
30
0
10
906.95275706787129
20
181.63368444824201
30
0
10
910.13593951416033
20
197.84884818115222
30
0
10
909.150035739136
20
208.27171430664052
30
0
0
SPLINE
5
928
100
AcDbEntity
8
0
100
AcDbSpline
70
4
71
3
72
8
73
4
74
0
42
0.000000001
43
0.0000000001
44
0.0000000001
40
0
40
0
40
0
40
0
40
1
40
1
40
1
40
1
41
1
41
1
41
1
41
1
10
780.31525199584962
20
306.32465659027093
30
0
10
779.67170639343271
20
316.36132652130118
30
0
10
783.54029351501481
20
317.38188341369619
30
0
10
783.96490713195817
20
326.12386899871819
30
0
0
SPLINE
5
929
100
AcDbEntity
8
0
100
AcDbSpline
70
4
71
3
72
8
73
4
74
0
42
0.000000001
43
0.0000000001
44
0.0000000001
40
0
40
0
40
0
40
0
40
1
40
1
40
1
40
1
41
1
41
1
41
1
41
1
10
835.17967638854986
20
329.50765664215078
30
0
10
836.17016186065689
20
329.82467566375726
30
0
10
833.81387894134537
20
338.25058868103014
30
0
10
826.08868594360365
20
346.70250766906736
30
0
0
SPLINE
5
930
100
AcDbEntity
8
0
100
AcDbSpline
70
4
71
3
72
8
73
4
74
0
42
0.000000001
43
0.0000000001
44
0.0000000001
40
0
40
0
40
0
40
0
40
1
40
1
40
1
40
1
41
1
41
1
41
1
41
1
10
866.86069203338639
20
297.82659797668435
30
0
10
846.38859395294185
20
300.64827807006827
30
0
10
841.83434403228773
20
321.98745694580066
30
0
10
817.25332408142094
20
322.79235142059321
30
0
0
SPLINE
5
931
100
AcDbEntity
8
0
100
AcDbSpline
70
4
71
3
72
8
73
4
74
0
42
0.000000001
43
0.0000000001
44
0.0000000001
40
0
40
0
40
0
40
0
40
1
40
1
40
1
40
1
41
1
41
1
41
1
41
1
10
826.08868594360365
20
346.70250766906736
30
0
10
850.64537772827157
20
362.93139498291009
30
0
10
813.25244852294929
20
365.34554064941398
30
0
10
802.61366185607915
20
369.55050607604971
30
0
0
SPLINE
5
932
100
AcDbEntity
8
0
100
AcDbSpline
70
4
71
3
72
8
73
4
74
0
42
0.000000001
43
0.0000000001
44
0.0000000001
40
0
40
0
40
0
40
0
40
1
40
1
40
1
40
1
41
1
41
1
41
1
41
1
10
782.43616904907242
20
359.2506359313964
30
0
10
781.59132991943363
20
367.44010756683338
30
0
10
786.29012915649423
20
367.62154707336413
30
0
10
789.98540767059342
20
362.4845181900024
30
0
0
SPLINE
5
933
100
AcDbEntity
8
0
100
AcDbSpline
70
4
71
3
72
8
73
4
74
0
42
0.000000001
43
0.0000000001
44
0.0000000001
40
0
40
0
40
0
40
0
40
1
40
1
40
1
40
1
41
1
41
1
41
1
41
1
10
937.98629072265635
20
313.07409868164052
30
0
10
905.05408458862325
20
307.91099929656974
30
0
10
909.99668173522969
20
335.53643865203856
30
0
10
938.90706126403813
20
334.76553047485339
30
0
0
SPLINE
5
934
100
AcDbEntity
8
0
100
AcDbSpline
70
4
71
3
72
8
73
4
74
0
42
0.000000001
43
0.0000000001
44
0.0000000001
40
-1
40
-1
40
-1
40
-1
40
0
40
0
40
0
40
0
41
1
41
1
41
1
41
1
10
874.55710422973641
20
444.75104033813466
30
0
10
883.57039941711434
20
443.40324702453609
30
0
10
890.05674884643565
20
451.52014285736072
30
0
10
892.99497182617199
20
456.81576729278561
30
0
0
SPLINE
5
935
100
AcDbEntity
8
0
100
AcDbSpline
70
4
71
3
72
8
73
4
74
0
42
0.000000001
43
0.0000000001
44
0.0000000001
40
-1
40
-1
40
-1
40
-1
40
0
40
0
40
0
40
0
41
1
41
1
41
1
41
1
10
878.26750449523934
20
427.36205871887194
30
0
10
881.33496144714377
20
432.75551206665028
30
0
10
881.79016273193372
20
438.71853704376207
30
0
10
874.55710422973641
20
444.75104033813466
30
0
0
SPLINE
5
936
100
AcDbEntity
8
0
100
AcDbSpline
70
4
71
3
72
8
73
4
74
0
42
0.000000001
43
0.0000000001
44
0.0000000001
40
-1
40
-1
40
-1
40
-1
40
0
40
0
40
0
40
0
41
1
41
1
41
1
41
1
10
859.51752222900404
20
429.55105591888423
30
0
10
863.63246698760986
20
434.84648676147458
30
0
10
872.12213657836924
20
434.86472750854489
30
0
10
878.26750449523934
20
427.36205871887194
30
0
0
SPLINE
5
937
100
AcDbEntity
8
0
100
AcDbSpline
70
4
71
3
72
8
73
4
74
0
42
0.000000001
43
0.0000000001
44
0.0000000001
40
-1
40
-1
40
-1
40
-1
40
0
40
0
40
0
40
0
41
1
41
1
41
1
41
1
10
871.62879750518812
20
408.9680936752319
30
0
10
856.66645904541031
20
414.37428112945554
30
0
10
856.73968015747073
20
424.59385326843261
30
0
10
859.51752222900404
20
429.55105591888423
30
0
0
SPLINE
5
938
100
AcDbEntity
8
0
100
AcDbSpline
70
4
71
3
72
8
73
4
74
0
42
0.000000001
43
0.0000000001
44
0.0000000001
40
0
40
0
40
0
40
0
40
1
40
1
40
1
40
1
41
1
41
1
41
1
41
1
10
808.66165257720945
20
221.56255072326644
30
0
10
812.93263316040054
20
223.26784547119127
30
0
10
815.52662657012945
20
229.8661776000975
30
0
10
817.11638941650392
20
237.26512365112291
30
0
0
SPLINE
5
939
100
AcDbEntity
8
0
100
AcDbSpline
70
4
71
3
72
8
73
4
74
0
42
0.000000001
43
0.0000000001
44
0.0000000001
40
-1
40
-1
40
-1
40
-1
40
0
40
0
40
0
40
0
41
1
41
1
41
1
41
1
10
892.99497182617199
20
456.81576729278561
30
0
10
896.39183774108903
20
432.65469322052002
30
0
10
916.88686581726085
20
428.27364435577385
30
0
10
934.1774592559816
20
428.63757737426749
30
0
0
SPLINE
5
940
100
AcDbEntity
8
0
100
AcDbSpline
70
4
71
3
72
8
73
4
74
0
42
0.000000001
43
0.0000000001
44
0.0000000001
40
0
40
0
40
0
40
0
40
1
40
1
40
1
40
1
41
1
41
1
41
1
41
1
10
938.90706126403813
20
334.76553047485339
30
0
10
952.83985151977561
20
334.2861515960692
30
0
10
965.37305162353528
20
326.71639213409406
30
0
10
972.25927780761731
20
309.53395255889882
30
0
0
SPLINE
5
941
100
AcDbEntity
8
0
100
AcDbSpline
70
4
71
3
72
8
73
4
74
0
42
0.000000001
43
0.0000000001
44
0.0000000001
40
0
40
0
40
0
40
0
40
1
40
1
40
1
40
1
41
1
41
1
41
1
41
1
10
786.86131405944832
20
224.02027628784168
30
0
10
794.20308569335941
20
224.23684213867176
30
0
10
796.77287999877933
20
216.81569744262674
30
0
10
808.66165257720945
20
221.56255072326644
30
0
0
SPLINE
5
942
100
AcDbEntity
8
0
100
AcDbSpline
70
4
71
3
72
8
73
4
74
0
42
0.000000001
43
0.0000000001
44
0.0000000001
40
0
40
0
40
0
40
0
40
1
40
1
40
1
40
1
41
1
41
1
41
1
41
1
10
910.09627449340826
20
261.2694305480955
30
0
10
920.31044754333504
20
262.63017307128899
30
0
10
932.83792590332041
20
270.0301516174315
30
0
10
944.67419180297861
20
262.94448179321279
30
0
0
SPLINE
5
943
100
AcDbEntity
8
0
100
AcDbSpline
70
4
71
3
72
8
73
4
74
0
42
0.000000001
43
0.0000000001
44
0.0000000001
40
0
40
0
40
0
40
0
40
1
40
1
40
1
40
1
41
1
41
1
41
1
41
1
10
944.67419180297861
20
262.94448179321279
30
0
10
960.83101956176756
20
253.27236867980935
30
0
10
945.19302059936535
20
232.6549469116209
30
0
10
933.10078195190442
20
251.65023280944808
30
0
0
SPLINE
5
944
100
AcDbEntity
8
0
100
AcDbSpline
70
4
71
3
72
8
73
4
74
0
42
0.000000001
43
0.0000000001
44
0.0000000001
40
0
40
0
40
0
40
0
40
1
40
1
40
1
40
1
41
1
41
1
41
1
41
1
10
972.25927780761731
20
309.53395255889882
30
0
10
979.08351126403829
20
291.55500753173817
30
0
10
973.96409932861343
20
266.30895317382794
30
0
10
967.65452166748059
20
252.68543822631827
30
0
0
SPLINE
5
945
100
AcDbEntity
8
0
100
AcDbSpline
70
4
71
3
72
8
73
4
74
0
42
0.000000001
43
0.0000000001
44
0.0000000001
40
-1
40
-1
40
-1
40
-1
40
0
40
0
40
0
40
0
41
1
41
1
41
1
41
1
10
715.18724535980232
20
247.84751027221665
30
0
10
720.15399859008789
20
249.17697679748522
30
0
10
725.56721991729751
20
246.39917774658193
30
0
10
727.08251405334477
20
236.55648783569319
30
0
0
SPLINE
5
946
100
AcDbEntity
8
0
100
AcDbSpline
70
4
71
3
72
8
73
4
74
0
42
0.000000001
43
0.0000000001
44
0.0000000001
40
0
40
0
40
0
40
0
40
1
40
1
40
1
40
1
41
1
41
1
41
1
41
1
10
967.65452166748059
20
252.68543822631827
30
0
10
950.92397078857425
20
300.10998243865964
30
0
10
896.52614814758317
20
262.87939158020004
30
0
10
872.49942750244145
20
281.44971969604478
30
0
0
SPLINE
5
947
100
AcDbEntity
8
0
100
AcDbSpline
70
4
71
3
72
8
73
4
74
0
42
0.000000001
43
0.0000000001
44
0.0000000001
40
0
40
0
40
0
40
0
40
1
40
1
40
1
40
1
41
1
41
1
41
1
41
1
10
895.7608971832276
20
303.75555061492912
30
0
10
911.97859913330092
20
285.50381177368143
30
0
10
940.02981366272002
20
292.54985959777827
30
0
10
937.98629072265635
20
313.07409868164052
30
0
0
SPLINE
5
948
100
AcDbEntity
8
0
100
AcDbSpline
70
4
71
3
72
8
73
4
74
0
42
0.000000001
43
0.0000000001
44
0.0000000001
40
-1
40
-1
40
-1
40
-1
40
0
40
0
40
0
40
0
41
1
41
1
41
1
41
1
10
872.49942750244145
20
498.15123608245841
30
0
10
896.52614814758317
20
516.72155344314569
30
0
10
950.92397078857425
20
479.49095182952874
30
0
10
967.65452166748059
20
526.91549604187014
30
0
0
SPLINE
5
949
100
AcDbEntity
8
0
100
AcDbSpline
70
4
71
3
72
8
73
4
74
0
42
0.000000001
43
0.0000000001
44
0.0000000001
40
0
40
0
40
0
40
0
40
1
40
1
40
1
40
1
41
1
41
1
41
1
41
1
10
872.49942750244145
20
281.44971969604478
30
0
10
883.55882686767586
20
282.56851419677719
30
0
10
895.80456312255876
20
292.26755822448717
30
0
10
895.7608971832276
20
303.75555061492912
30
0
0
SPLINE
5
950
100
AcDbEntity
8
0
100
AcDbSpline
70
4
71
3
72
8
73
4
74
0
42
0.000000001
43
0.0000000001
44
0.0000000001
40
-1
40
-1
40
-1
40
-1
40
0
40
0
40
0
40
0
41
1
41
1
41
1
41
1
10
967.65452166748059
20
526.91549604187014
30
0
10
973.96409932861343
20
513.29200260467519
30
0
10
979.08351126403829
20
488.04592673645016
30
0
10
972.25927780761731
20
470.06700321960443
30
0
0
SPLINE
5
951
100
AcDbEntity
8
0
100
AcDbSpline
70
4
71
3
72
8
73
4
74
0
42
0.000000001
43
0.0000000001
44
0.0000000001
40
-1
40
-1
40
-1
40
-1
40
0
40
0
40
0
40
0
41
1
41
1
41
1
41
1
10
972.25927780761731
20
470.06700321960443
30
0
10
965.37305162353528
20
452.88456364440913
30
0
10
952.83985151977561
20
445.31482569274897
30
0
10
938.90706126403813
20
444.83542530364986
30
0
0
SPLINE
5
952
100
AcDbEntity
8
0
100
AcDbSpline
70
4
71
3
72
8
73
4
74
0
42
0.000000001
43
0.0000000001
44
0.0000000001
40
-1
40
-1
40
-1
40
-1
40
0
40
0
40
0
40
0
41
1
41
1
41
1
41
1
10
938.90706126403813
20
444.83542530364986
30
0
10
909.99668173522969
20
444.06451712646481
30
0
10
905.05408458862325
20
471.68995648193356
30
0
10
937.98629072265635
20
466.52685709686273
30
0
0
SPLINE
5
953
100
AcDbEntity
8
0
100
AcDbSpline
70
4
71
3
72
8
73
4
74
0
42
0.000000001
43
0.0000000001
44
0.0000000001
40
-1
40
-1
40
-1
40
-1
40
0
40
0
40
0
40
0
41
1
41
1
41
1
41
1
10
937.98629072265635
20
466.52685709686273
30
0
10
940.02981366272002
20
487.05109618072504
30
0
10
911.97859913330092
20
494.09713324966418
30
0
10
895.7608971832276
20
475.84539440841667
30
0
0
SPLINE
5
954
100
AcDbEntity
8
0
100
AcDbSpline
70
4
71
3
72
8
73
4
74
0
42
0.000000001
43
0.0000000001
44
0.0000000001
40
-1
40
-1
40
-1
40
-1
40
0
40
0
40
0
40
0
41
1
41
1
41
1
41
1
10
895.7608971832276
20
475.84539440841667
30
0
10
895.80456312255876
20
487.333419064331
30
0
10
883.55882686767586
20
497.03245233688347
30
0
10
872.49942750244145
20
498.15123608245841
30
0
0
LINE
5
955
100
AcDbEntity
8
0
100
AcDbLine
10
893.45030217285171
20
601.87955127906798
30
0
11
951.3897981689455
21
601.87955127906798
31
0
0
SPLINE
5
956
100
AcDbEntity
8
0
100
AcDbSpline
70
4
71
3
72
8
73
4
74
0
42
0.000000001
43
0.0000000001
44
0.0000000001
40
-1
40
-1
40
-1
40
-1
40
0
40
0
40
0
40
0
41
1
41
1
41
1
41
1
10
951.3897981689455
20
601.87955127906798
30
0
10
941.09315457153332
20
597.30049996528624
30
0
10
940.56671112365734
20
585.5585245311737
30
0
10
943.53986685485847
20
580.76398288230894
30
0
0
SPLINE
5
957
100
AcDbEntity
8
0
100
AcDbSpline
70
4
71
3
72
8
73
4
74
0
42
0.000000001
43
0.0000000001
44
0.0000000001
40
-1
40
-1
40
-1
40
-1
40
0
40
0
40
0
40
0
41
1
41
1
41
1
41
1
10
959.97503808898944
20
570.55171349525449
30
0
10
954.27355703125022
20
567.68117809906005
30
0
10
947.03580928039571
20
570.99648765487677
30
0
10
940.55565482177735
20
573.51441521339416
30
0
0
SPLINE
5
958
100
AcDbEntity
8
0
100
AcDbSpline
70
4
71
3
72
8
73
4
74
0
42
0.000000001
43
0.0000000001
44
0.0000000001
40
-1
40
-1
40
-1
40
-1
40
0
40
0
40
0
40
0
41
1
41
1
41
1
41
1
10
963.86117762756362
20
581.62783175277707
30
0
10
965.66025734863297
20
577.59575010490414
30
0
10
963.44108117675796
20
572.0156248664855
30
0
10
959.97503808898944
20
570.55171349525449
30
0
0
SPLINE
5
959
100
AcDbEntity
8
0
100
AcDbSpline
70
4
71
3
72
8
73
4
74
0
42
0.000000001
43
0.0000000001
44
0.0000000001
40
-1
40
-1
40
-1
40
-1
40
0
40
0
40
0
40
0
41
1
41
1
41
1
41
1
10
943.53986685485847
20
580.76398288230894
30
0
10
953.25977588806165
20
589.97349516258237
30
0
10
961.47684525756847
20
586.97173609008792
30
0
10
963.86117762756362
20
581.62783175277707
30
0
0
SPLINE
5
960
100
AcDbEntity
8
0
100
AcDbSpline
70
4
71
3
72
8
73
4
74
0
42
0.000000001
43
0.0000000001
44
0.0000000001
40
-1
40
-1
40
-1
40
-1
40
0
40
0
40
0
40
0
41
1
41
1
41
1
41
1
10
940.55565482177735
20
573.51441521339416
30
0
10
926.45633170776375
20
578.14379528656002
30
0
10
919.7190859649661
20
578.24171024017335
30
0
10
909.150035739136
20
571.41890184211729
30
0
0
SPLINE
5
961
100
AcDbEntity
8
0
100
AcDbSpline
70
4
71
3
72
8
73
4
74
0
42
0.000000001
43
0.0000000001
44
0.0000000001
40
-1
40
-1
40
-1
40
-1
40
0
40
0
40
0
40
0
41
1
41
1
41
1
41
1
10
766.24249412078871
20
498.29639844284054
30
0
10
764.88454793853771
20
497.07593543853756
30
0
10
761.27907498931893
20
496.82974988403316
30
0
10
760.02332431335458
20
499.64395514297479
30
0
0
SPLINE
5
962
100
AcDbEntity
8
0
100
AcDbSpline
70
4
71
3
72
8
73
4
74
0
42
0.000000001
43
0.0000000001
44
0.0000000001
40
-1
40
-1
40
-1
40
-1
40
0
40
0
40
0
40
0
41
1
41
1
41
1
41
1
10
668.07450391769407
20
227.62957807312006
30
0
10
680.22687465057379
20
238.48936171569818
30
0
10
687.35035960845948
20
245.10705312805163
30
0
10
695.06049538574234
20
253.11487015380857
30
0
0
SPLINE
5
963
100
AcDbEntity
8
0
100
AcDbSpline
70
4
71
3
72
8
73
4
74
0
42
0.000000001
43
0.0000000001
44
0.0000000001
40
-1
40
-1
40
-1
40
-1
40
0
40
0
40
0
40
0
41
1
41
1
41
1
41
1
10
736.86639476318362
20
532.79713674240111
30
0
10
740.55582247161874
20
530.951906640625
30
0
10
742.18202379150398
20
531.51343341217034
30
0
10
745.34561034088142
20
532.26253013000485
30
0
0
SPLINE
5
964
100
AcDbEntity
8
0
100
AcDbSpline
70
4
71
3
72
8
73
4
74
0
42
0.000000001
43
0.0000000001
44
0.0000000001
40
-1
40
-1
40
-1
40
-1
40
0
40
0
40
0
40
0
41
1
41
1
41
1
41
1
10
751.05315730743416
20
544.7849750762939
30
0
10
764.41033153533931
20
545.74683031921381
30
0
10
778.3018219863892
20
508.86887956390376
30
0
10
766.24249412078871
20
498.29639844284054
30
0
0
SPLINE
5
965
100
AcDbEntity
8
0
100
AcDbSpline
70
4
71
3
72
8
73
4
74
0
42
0.000000001
43
0.0000000001
44
0.0000000001
40
-1
40
-1
40
-1
40
-1
40
0
40
0
40
0
40
0
41
1
41
1
41
1
41
1
10
745.34561034088142
20
532.26253013000485
30
0
10
743.70585752258307
20
539.57635986480705
30
0
10
745.25614894104012
20
543.2496333267211
30
0
10
751.05315730743416
20
544.7849750762939
30
0
0
SPLINE
5
966
100
AcDbEntity
8
0
100
AcDbSpline
70
4
71
3
72
8
73
4
74
0
42
0.000000001
43
0.0000000001
44
0.0000000001
40
-1
40
-1
40
-1
40
-1
40
0
40
0
40
0
40
0
41
1
41
1
41
1
41
1
10
741.33782997131357
20
221.56255072326644
30
0
10
753.2266025497438
20
216.81569744262674
30
0
10
755.79639685516349
20
224.23684213867176
30
0
10
763.13816848907481
20
224.02027628784168
30
0
0
SPLINE
5
967
100
AcDbEntity
8
0
100
AcDbSpline
70
4
71
3
72
8
73
4
74
0
42
0.000000001
43
0.0000000001
44
0.0000000001
40
-1
40
-1
40
-1
40
-1
40
0
40
0
40
0
40
0
41
1
41
1
41
1
41
1
10
730.49082345581064
20
515.22643598251329
30
0
10
736.75548757934575
20
519.57637017669674
30
0
10
738.11367037506113
20
525.48195185775751
30
0
10
736.86639476318362
20
532.79713674240111
30
0
0
SPLINE
5
968
100
AcDbEntity
8
0
100
AcDbSpline
70
4
71
3
72
8
73
4
74
0
42
0.000000001
43
0.0000000001
44
0.0000000001
40
0
40
0
40
0
40
0
40
1
40
1
40
1
40
1
41
1
41
1
41
1
41
1
10
844.52838191680917
20
221.35729929809543
30
0
10
843.59498482055665
20
213.30035271301256
30
0
10
839.77339773712174
20
204.50254786071758
30
0
10
829.58587596740722
20
197.67917481689437
30
0
0
SPLINE
5
969
100
AcDbEntity
8
0
100
AcDbSpline
70
4
71
3
72
8
73
4
74
0
42
0.000000001
43
0.0000000001
44
0.0000000001
40
-1
40
-1
40
-1
40
-1
40
0
40
0
40
0
40
0
41
1
41
1
41
1
41
1
10
727.08251405334477
20
236.55648783569319
30
0
10
729.01482866516119
20
236.24174890747048
30
0
10
730.71616551513671
20
236.8285072784422
30
0
10
732.8830931320191
20
237.26512365112291
30
0
0
SPLINE
5
970
100
AcDbEntity
8
0
100
AcDbSpline
70
4
71
3
72
8
73
4
74
0
42
0.000000001
43
0.0000000001
44
0.0000000001
40
-1
40
-1
40
-1
40
-1
40
0
40
0
40
0
40
0
41
1
41
1
41
1
41
1
10
720.4136065811158
20
197.67917481689437
30
0
10
710.22608481140151
20
204.50254786071758
30
0
10
706.40449772796637
20
213.30035271301256
30
0
10
705.47110063171408
20
221.35729929809543
30
0
0
SPLINE
5
971
100
AcDbEntity
8
0
100
AcDbSpline
70
4
71
3
72
8
73
4
74
0
42
0.000000001
43
0.0000000001
44
0.0000000001
40
-1
40
-1
40
-1
40
-1
40
0
40
0
40
0
40
0
41
1
41
1
41
1
41
1
10
732.8830931320191
20
237.26512365112291
30
0
10
734.47285597839357
20
229.8661776000975
30
0
10
737.06684938812259
20
223.26784547119127
30
0
10
741.33782997131357
20
221.56255072326644
30
0
0
SPLINE
5
972
100
AcDbEntity
8
0
100
AcDbSpline
70
4
71
3
72
8
73
4
74
0
42
0.000000001
43
0.0000000001
44
0.0000000001
40
-1
40
-1
40
-1
40
-1
40
0
40
0
40
0
40
0
41
1
41
1
41
1
41
1
10
695.06049538574234
20
253.11487015380857
30
0
10
694.53256772613531
20
245.72908841552717
30
0
10
694.99157633666994
20
233.83212040710433
30
0
10
695.97212404327388
20
220.16524066467269
30
0
0
SPLINE
5
973
100
AcDbEntity
8
0
100
AcDbSpline
70
4
71
3
72
8
73
4
74
0
42
0.000000001
43
0.0000000001
44
0.0000000001
40
-1
40
-1
40
-1
40
-1
40
0
40
0
40
0
40
0
41
1
41
1
41
1
41
1
10
705.47110063171408
20
221.35729929809543
30
0
10
704.54351132049567
20
232.38017414855946
30
0
10
704.82144609985357
20
244.72580430603023
30
0
10
715.18724535980232
20
247.84751027221665
30
0
0
SPLINE
5
974
100
AcDbEntity
8
0
100
AcDbSpline
70
4
71
3
72
8
73
4
74
0
42
0.000000001
43
0.0000000001
44
0.0000000001
40
-1
40
-1
40
-1
40
-1
40
0
40
0
40
0
40
0
41
1
41
1
41
1
41
1
10
695.97212404327388
20
220.16524066467269
30
0
10
692.1953859664917
20
225.3911716796874
30
0
10
680.22515382537847
20
229.34167008056619
30
0
10
668.07450391769407
20
227.62957807312006
30
0
0
SPLINE
5
975
100
AcDbEntity
8
0
100
AcDbSpline
70
4
71
3
72
8
73
4
74
0
42
0.000000001
43
0.0000000001
44
0.0000000001
40
-1
40
-1
40
-1
40
-1
40
0
40
0
40
0
40
0
41
1
41
1
41
1
41
1
10
934.1774592559816
20
428.63757737426749
30
0
10
914.65022326965345
20
408.07756663665765
30
0
10
889.60774253234877
20
402.14388172912595
30
0
10
871.62879750518812
20
408.9680936752319
30
0
0
SPLINE
5
976
100
AcDbEntity
8
0
100
AcDbSpline
70
4
71
3
72
8
73
4
74
0
42
0.000000001
43
0.0000000001
44
0.0000000001
40
-1
40
-1
40
-1
40
-1
40
0
40
0
40
0
40
0
41
1
41
1
41
1
41
1
10
760.02332431335458
20
499.64395514297479
30
0
10
756.3232059783935
20
508.44335175857537
30
0
10
746.3283090789796
20
518.88510394058221
30
0
10
730.49082345581064
20
515.22643598251329
30
0
0
ENDSEC
0
SECTION
2
OBJECTS
0
DICTIONARY
5
C
100
AcDbDictionary
3
ACAD_GROUP
350
D
3
ACAD_MLINESTYLE
350
17
0
DICTIONARY
5
D
100
AcDbDictionary
0
DICTIONARY
5
1A
330
C
100
AcDbDictionary
0
DICTIONARY
5
17
100
AcDbDictionary
0
ENDSEC
0
EOF
